Song name
# A B C D E F G H I J K L M N O P Q R S T U V W X Y Z

Bernhoft - Choices tab

Choices, By Bernhoft

This is my first tab Hope you enjoy!

Intro
E]-------------------------------------------------------------------------|
B]-------------------------------------------------------------------------|
G]--------------------------------------------------------------2--2--2--2-|
D]--8--8--8--8--8--8--8--8--6--6--6--6--4--4--4--4--2--2--2--2--3--3--3--3-|
A]--7--7--7--7--7--7--7--7--8--8--8--8--5--5--5--5--3--3--3--3-------------|
E]--x--x--x--x--x--x--x--x--x--x--x--x--x--x--x--x--x--x--x--x-------------|


E]-------------------------------------|
B]-------------------------------------|
G]--------------------------7--7--7--7-|
D]--8--8--8--8--6--6--6--6--7--7--7--7-|
A]--7--7--7--7--8--8--8--8--6--6--6--6-|
E]--x--x--x--x--x--x--x--x--x--x--x--x-|

Please sub :)
Tap to rate this tab
 
# A B C D E F G H I J K L M N O P Q R S T U V W X Y Z