Song name
# A B C D E F G H I J K L M N O P Q R S T U V W X Y Z

Berzerker - Pain tab

Band:  The Berzerker
Song:  Pain
Album: The Berzerker
Transcribed by: The Great Southern Trendkill
E-Mail:         fromadyingfetus@aol.com

Tuning: A D G C



|------------------------------------------------------------|
|------------------------------------------------------------|
|-0----0-0----0-0----0-0----0-0----0-0----0-0-0-0-0-0-0-0-0--|
|------------------------------------------------------------|


|------------------------------------------------------------|
|------------------------------------------------------------|
|-0----0-0----0-0----0-0----0-0----0-0----0-0-0-0-0-0-0-0-0--|
|------------------------------------------------------------|


|----------------------------------------------|
|-2--------------------------------------------|
|-0--------------------------------------------|
|----------------------------------------------|


|--------------------------------------------------------------------|
|--------------------------------------------------------------------|
|-0-0-0-0-0-0-0-0--0-0-0-0-0-0---0-0-0-0-0-0-0-0-0-0-0-0-0-0-0-0-0---|
|--------------------------------------------------------------------|


|--------------------------------------------------------------|
|--------------------------------------------------------------|
|-0----0-0----0-0-----0-0----0-0----0-0-----0-0-0-0-0-0-0-0----|
|--------------------------------------------------------------|


|---------------------------------------|
|---------------------------------------|
|---------------------------------------|
|---------------------------------------|


|------------------------------------------------------------------|
|------------------------------------------------------------------|
|-0-0-0-0-0-0-0-0-0-0-0-0-0-0-0-0-0-0-0-0-0-0-0-0-0-0-0-0-0-0-0-0--|
|------------------------------------------------------------------|


|-----------------------------------------------------------------|
|-----------------------------------------------------------------|
|-0-0-0-0-0-0-0-0-0-0-0-0-0-0-0-0-0-0-0-0-0-0-0-0-0-0-0-0-0-0-0---|
|-----------------------------------------------------------------|


|--------------------------------------|
|--------------------------------------|
|--------------------------------------|
|--------------------------------------|


|--------------------------------------------------------------------|
|--------------------------------------------------------------------|
|-0-0-0-0-0-0-0-0-0-0--0-0-0-0-0-0-0-0-0-0--0-0-0-0-0-0-0-0-0-0-0----|
|--------------------------------------------------------------------|


|--------|
|--------|
|--------|
|--------|


|-----------------------------------------------------------------|
|-----------------------------------------------------------------|
|-0-0-0-0-0-0-0-0-0-0-0-0-0-0-0-0-0-0-0-0-0-0-0-0-0-0-0-0-0-0-0-0-|
|-----------------------------------------------------------------|


|-----------------------------------------------------------------|
|-----------------------------------------------------------------|
|-0-0-0-0-0-0-0-0-0-0-0-0-0-0-0-0-0-0-0-0-0-0-0-0-0-0-0-0-0-0-0---|
|-----------------------------------------------------------------|


|----------------------------------------|
|----------------------------------------|
|----------------------------------------|
|----------------------------------------|


|------------------------------------------------------------------|
|------------------------------------------------------------------|
|-0-0-0-0-0-0-0-0-0-0-0-0-0-0-0-0-0-0-0-0-0-0-0-0-0-0-0-0-0-0-0----|
|------------------------------------------------------------------|


|--------------------------------------------------------------------|
|--------------------------------------------------------------------|
|--------0----0-0----0-0----0-0----0-0----0-0----0-0-0-0-0-0-0-0-0---|
|--------------------------------------------------------------------|


|-------------------------------------------------------------------|
|-------------------------------------------------------------------|
|-0----0-0----0-0----0-0----0-0----0-0----0-0-0-0-0-0-0-0-0-0-------|
|-------------------------------------------------------------------|
Tap to rate this tab
# A B C D E F G H I J K L M N O P Q R S T U V W X Y Z