Song name
# A B C D E F G H I J K L M N O P Q R S T U V W X Y Z

Between The Buried And Me - Prequel To The Sequel tab

OK here is the intro for "Prequel To The Sequel" which I may or may not have ripped off 
the power tab version, but I'm tired of having to open up the power tab whenever I wanna 
this song, so enjoy!
BTW The correct tuning for ALL Between the Buried And Me songs is Db tuning, which is 3 
down from standard.
  PM .  .  .
e|--------------------------------------------------------------------------|
B|---------------------------------------------------------9h10p9-------12--|
G|---------------------------------------------------11-------------11------|
D|---------------------------------9-----------9----------------------------|
A|---------------6---7---6--------------7-----------------------------------|
E|-----0--4--7---------------7----------------------------------------------|

e|-11h12p11-----------------------------------------------------------------|
B|-----------12-------------------------------------------------------------|
G|--------------11----------11h13-------------------------------------------|
D|-------------------13h14--------------------------------------------------|
A|--------------------------------------------------------------------------|
E|--------------------------------------------------------------------------|
   ..   .   .
e|--------------------------------------------------------------------------|
B|---------------------------------------------7h8p7------10----------------|
G|---------------6h7p6--------9-------7----9-----------9--------------------|
D|----------7-------------7--------7----------------------------------------|
A|---0--5-------------------------------------------------------------------|
E|--------------------------------------------------------------------------|

e|--9h10p9------------------------------------------------------------------|
B|-----------10-------------------------------------------------------------|
G|---------------9---------------9h11---------------------------------------|
D|---------------------11h12------------------------------------------------|
A|--------------------------------------------------------------------------|
E|--------------------------------------------------------------------------|
Tap to rate this tab
# A B C D E F G H I J K L M N O P Q R S T U V W X Y Z