Song name
# A B C D E F G H I J K L M N O P Q R S T U V W X Y Z

Beware Of Darkness - Howl tab

It's ALMOST all of the song. Missing one or two little parts. But not really the fun 
parts anyways. More about the band here: http://bewareofdarknessmusic.com/

Intro Riff:
------------------------------------------------------------------------|
------------------------------------------------------------------------|
--------------------------------------------------------------9---------|
------7b9r7/5----------------------------7b9r7/5-----------------8------|
---------------h7-5--77---------------------------h7--5--77-------------|
--0--------------------------3------0-----------------------------------|

--------------------------------------------------------------------|
--------------------------------------------------------------------|
--------------------------------------------------------------------|
------7b9r7/5-------------------------------------------------------|
------------------h7-5--77---------2-2-2-5-2-5-7--------------------|
--0----------------------------3------------------------------------|

Verse:
---------------------------------------------------------|
---------------------------------------------------------|
------------------------------------7-7---7--------------|
------------------------------------7-7-7-7-7------------|
------------------------------------5-5-7-5-7------------|
--0--0-0-0-0-0-0-0-0-0-0-0-0-0-0--------5---5--3---------|

Pre-Chorus:
------------------------------------9----9/-----7-----------------|
-----------------------------/12----10--10/-----8-----------------|
------2b (slow)--------------------------------------9------------|
------------------------------------------------------------------|
------------------------------------------------------------------|
--0---------------------------------------------------------------|

---------9------9------9---------------------------------------|
--/12----10----10-----10---------------------------------------|
-------------------12-----12---9p7h9---------------------------|
---------------------------------------------------------------|
---------------------------------------------------------------|
---------------------------------------------------------------|

Chorus:
-------------------------------------------------------------|
-------------------------------------------------------------|
-------------------------------------------------------------|
---------------------------------------5-----7---------------|
-----7----7----7----7p5-7----7--------5-----7----------------|
--0----0----0----0--------0-----0-----3-----5----------------|

Bridge:
Guitar doesn't really play much here... mostly noise over the bass line.

Solo: Played over Verse
e-----------------------------------------------------------15----|
b--10b12-10-8-10-b12r10-8-------------/8--/10--/11--/12-----------|
g---------------------------7/6-----------------------------------|
There's another two bars of solo, but 1- I couldn't figure it out and 2- it's just 
mainly fiddling in the key. Nothing special about those parts.
Tap to rate this tab
 
# A B C D E F G H I J K L M N O P Q R S T U V W X Y Z