Song name
# A B C D E F G H I J K L M N O P Q R S T U V W X Y Z

Bhse Onkelz - Ich Trinke Auf Gute Freunde tab

Ich trinke auf gute Freunde- Böhse Onkelz- Intro and riff

Intro:

E|---------------------------------------------------|
H|---------------------------------------------------|
G|---------------------------------------------------|
D|-------0---------0--------------------0---------0--|
A|-0-1-2—--2-0-1-2---2-0-1-2------0-1-2---2-0-1-2—2--|
E|---------------------------------------------------|

Riff:

E-|--------------------------------------------------|
H-|--------------------------------------------------|
G-|--------------------------------------------------|
D-|--------------------------------------------------|
A-|--9-9—9-9-9-9-9-9---5-5-5-5-5-5-5-5---------------|
E-|--7-7-7-7-7-7-7-7---3-3-3-3-3-3-3-3---------------|

E-|--------------------------------------------------|
H-|--------------------------------------------------|
G-|--------------------------------------------------|
D-|--7-7-7-7-7-7-7-7---------------------------------|
A-|--5-5-5-5-5-5-5-5---7-7-7-7-6-7-8-9---------------|
E-|--------------------5-5-5-5-4-5-6-7---------------|
Tap to rate this tab
 
# A B C D E F G H I J K L M N O P Q R S T U V W X Y Z