Song name
# A B C D E F G H I J K L M N O P Q R S T U V W X Y Z

Bhse Onkelz - Cest La Vie tab

   BÖHSE ONKELZ


 e --------------------------------------------|
 b --------------------------------------------|
 g -------------------------------------2/-----|
 d --4--4-4-4-4-4-4-x-x------------------------|     4x
 a --2--2-2-2-2-2-2-x-x---5-5-5--4-4-----------|
 e -----------------------3-3-3--2-2-----------|


  ------------------------------------------------------------------------|
  ------------------------------------------------------------------------|
  ------------------------------------------------------------------------|
  ---4-4-4-4-4-4-4-4--------------------1-1-1-1-1-1-1-1-------------------|
  ---2-2-2-2-2-2-2-2---4-4-4-4-4-4-4-4--0-0-0-0-0-0-0-0--1-1-1-1-1-1-1-1--|
  ---------------------2-2-2-2-2-2-2-2-------------------0-0-0-0-0-0-0-0--|

  -----------------------------------------------------------|
  -----------------------------------------------------------|
  -----6-7--s9-7-6---6---------6-7--s9--7-6------------------|
  ---9-------------7--------9---------------7--s9------------|
  -----------------------------------------------------------|
  -----------------------------------------------------------|
Tap to rate this tab
 
# A B C D E F G H I J K L M N O P Q R S T U V W X Y Z