Song name
# A B C D E F G H I J K L M N O P Q R S T U V W X Y Z

Bibio - You Wont Remember tab

band: bibio
song: you won't remember
tabbed by: ryan marko

standard tuning, capo 7th fret.

chords:

e|--0--------------0--------------|
b|--1----3----1----0----1----1----|
g|--0----0----4----0----2----0----|
d|--2----0----2----2----3----3----|
a|--3----2----0---------3----3----|
e|-----------------3----1----1----|


    1     +     2     +     3     +     4     +     1     +     2     +     3     +     
4     +
e|--0-----------------------------------------------------------------------0-----------------------|
b|-----------------3--------1--------------1--------1--------------1-----------------------0--------|
g|-----------0-----------0-----------4-----------4-----------4-----------4-----------0-----------0--|
d|--------2-----------0-----------2-----------2-----------2-----------2-----------2-----------2-----|
a|--3-----------2-----------0-----------0-----------0-----------0-----------------------------------|
e|--------------------------------------------------------------------------3-----------3-----------|


    1     +     2     +     3     +     4     +     1     +     2     +     3     +     
4     +
e|--------------------------------------------------------------------------------------------------|
b|--1--------------1--------1--------------1--------1--------------1--------1--------------1--------|
g|-----------2-----------2-----------2-----------2-----------0-----------0-----------0-----------0--|
d|--------3-----------3-----------3-----------3-----------3-----------3-----------3-----------3-----|
a|--------------------------------------------------------------------------------------------------|
e|--1-----------1-----------1-----------1-----------1-----------1-----------1-----------1-----------|
Tap to rate this tab
# A B C D E F G H I J K L M N O P Q R S T U V W X Y Z