Song name
# A B C D E F G H I J K L M N O P Q R S T U V W X Y Z

Bif Naked - Over You tab

                                  Over You

By: David Harrison: blaze@interlog.com
Song: "Over You" by "Bif Naked"
Album: "Bif Naked"(1996)

[Riff 1]
E|---------------------------------|
B|---------------------------------|
G|---------------------------------|
D|-2-4---4-4---2-4---4-4-----------|
A|-2-4---4-4---2-4---4-4-----------|
E|-0-2---2-2---0-2---2-2---0-2-3---|

[Riff 2]
E|---------------------------------|
B|---------------------------------|
G|-2-4---4-4---2-4---4-4-----------|
D|-2-4---4-4---2-4---4-4-----------|
A|-0-2---2-2---0-2---2-2---0-2-3---|
E|---------------------------------|

[Riff 3]
E|---------------------------------|
B|---------------------------------|
G|---------------------7/9-9br-7---|
D|---------5h7-----7-5-------------|
A|---5-7-5-----5-7-----------------|
E|-7-------------------------------|

[Riff 4]
E|-0---------0---------|
B|-0---------0---------|
G|-5---------4---------|
D|-5---------4---------|
A|-3---------2---------|
E|---------------------|
Tap to rate this tab
# A B C D E F G H I J K L M N O P Q R S T U V W X Y Z