Song name
# A B C D E F G H I J K L M N O P Q R S T U V W X Y Z

Biffy Clyro - The Captain Acoustic tab

this is my first ever tab but i think its pretty accurate :) 

 A - (002220)
 D - (xx0232)
 E - (022100)
 F# -(244222)


 A      
Angels fall to the floor
  

 D                        E
Like they would if I was captain
  
 A
"Silver children," She roared
  

D                   E
"I'm not the son of God"
  
A
Somebody help me sing

D               E
Can anybody hear me?

A
Liars and lovers combine tonight

D                    E
We're gonna make a scene

Pre-Chorus
e|-------------------------------------------------------|
B|-2-----2-----3-----3-----2-----2------0-----0----------|
G|---2-2---2-2---2-2---2-2---2-2---2-2----2-2----2-2-----|
D|-------------------------------------------------------|   x2
A|-------------------------------------------------------|
E|-------------------------------------------------------|

Somebody help me sing
Woah-oh-oh-oh
Somebody help me sing
Woah-oh-oh-oh
 
A
Help me be captain of

E
Our crippled disguises

F#
I won't show what's underneath

E
It's time for surprises

A
I can't climb up your ladder

E
I can't ride your horse

F#
I've swallowed half an hourglass

E
So now the landscape is swollen up

e|-----------------------------------------------------|
B|--------------------9---10---12---10---9---7h9p7---5-|
G|--------6---7---9------------------------------------|
D|-----------------------------------------------------|
A|-0~--------------------------------------------------|
E|-----------------------------------------------------|

e|------------------------------------------------------|
B|--------------9---10---12---10---9---10---10/12-------|
G|--6---7---9-------------------------------------------|
D|------------------------------------------------------|
A|------------------------------------------------------|
E|------------------------------------------------------|

A
I gave birth to a fire

D                               E
It's like it's features where burning

A
I'm in control

D                E
I am the son of God

A
Somebody help me sing

D                 E 
Can anybody hear me?

A
Line up your shoulders one final time

D                   E
We're gonna have a ball

Pre-Chorus
e|-------------------------------------------------------|
B|-2-----2-----3-----3-----2-----2------0-----0----------|
G|---2-2---2-2---2-2---2-2---2-2---2-2----2-2----2-2-----|
D|-------------------------------------------------------|   x2
A|-------------------------------------------------------|
E|-------------------------------------------------------|

Somebody help me sing
Woah-oh
Somebody help me sing
Woah-oh

A
Help me be captain of

E
Our crippled disguises

F#
I won't show what's underneath

E
It's time for surprises

A
I can't climb up your ladder

E
I can't ride your horse

F#
I've swallowed half an hourglass

E
So now the landscape is swollen up





A
Let's love death away

E
Let's love death away

F#
Let's love death away

E
Let's love death away

A
Let's love death away

E
Let's love death away

F#
Let's love death away

E
Let's love death away 


Im not too sure on the ending so i just end on A 

thanks :)
Tap to rate this tab
# A B C D E F G H I J K L M N O P Q R S T U V W X Y Z