Song name
# A B C D E F G H I J K L M N O P Q R S T U V W X Y Z

Biffy Clyro - The Captain Acoustic chords

Highlighted       Show chord diagrams
This isnt 100% but its pritty close...

this is the version played on the live lounge tour in Ben's Ayrshire flat! Enjoy


Chords Used:

        EADGBe
A      (002220)
D      (XX0232)
E      (022100)
F#min  (244222) [not
e: for this song, only play one the E A & D strings for this chord: ie (244XXX)]

Verse

A                                     D              E
  Angels fall to the floor, Like they would if I was captain
A                                     D              E
  "Silver children," She roared, "I'm not the son of God"
  A                          D       E
  Somebody help me sing, Can anybody hear me?
  A                                 D                  E
  Liars and lovers combine tonight, We're gonna make a scene

Pre-Chorus

e|---------------------------------------|
B|----2--2--2--3--3--3--2--2--2--0--0--0-|
G|--2--2--2--2--2--2--2--2--2--2--2--2---|
D|---------------------------------------|
A|---------------------------------------|
E|---------------------------------------|

   Somebody help me sing, Woah-oh-oh-oh
   Somebody help me sing, Woah-oh-oh-oh

Chorus

A                      E
Help me be captain of, Our crippled disguises
F#min                           E
I won't show what's underneath, It's time for surprises
A                             E
I can't climb up your ladder, I can't ride your horse
F#min                             E
I've swallowed half an hourglass, So now the landscape is swollen up


Bridge

e|--------------------------------------------------------------------------------|
B|-------5--7--9--10/12--10--9----7h9p7-------5--7--9--10/12--10--9----10/12/10---|
G|--6--7---------------------------------6--7-------------------------------------|
D|--------------------------------------------------------------------------------|
A|--------------------------------------------------------------------------------|
E|--------------------------------------------------------------------------------|


verse 2

I gave birth to a fire, It's like it's features where burning
I'm in control, I am the son of God
Somebody help me sing, Can anybody hear me?
Line up your soldiers one final time, We're gonna have a ball

chorus

A                      E
Help me be captain of, Our crippled disguises
F#min                           E
I won't show what's underneath, It's time for surprises
A                             E
I can't climb up your ladder, I can't ride your horse
F#min                             E
I've swallowed half an hourglass, So now the landscape is swollen up


A E F#Min (listen to song for strum pattern)

A                     E
Lets love death away, Lets love death away
F#Min                 E
Lets love death away, Lets love death away
A                     E
Lets love death away, Lets love death away
F#min                 E
Lets love death away, Lets love death away


outro

e|--------------------------------------------|
B|--------------------2-----------------------|
G|--2-----2-----2-----0----2-----2-----5-4-3--|   x2
D|--2-----2-----2-----2----2-----2-----5-4-3--|
A|--0-0-0-0-0-0-0-0-0-3----0-0-0-0-0-0-3-2-1--|
E|--------------------------------------------|

Finish on

e|----
B|--2-
G|--0-
D|--2-
A|--3-
E|----

hope i helped
Tap to rate this tab
# A B C D E F G H I J K L M N O P Q R S T U V W X Y Z