Song name
# A B C D E F G H I J K L M N O P Q R S T U V W X Y Z

Biffy Clyro - Folding Stars Acoustic tab

-------------------------------------------------------------------------------
			     Folding Stars - Biffy Clyro
-------------------------------------------------------------------------------

Not sure about all of the chords in the chorus but I reckon it's fairly spot on.
Comment if you think it needs changing and please rate :)
Figure the strumming out yourself...

Tuning: Drop D , or standard it just makes the chorus better.

Riff 1 : Intro and Verse.

e|-0---0---0---0---0-----0---------------------------------------------------|
B|-10--10--10--10--10----10--------------------------------------------------|
G|-9---9---9---11--11p9--9---------------------------------------------------|
D|-x---x---0---0---0-----0---------------------------------------------------|
A|-11--12--0---0---0-----0---------------------------------------------------|
D|-x---x---x---x---x-----x---------------------------------------------------|

Riff 2 : Bridge

e|-0---0---0---0-------------------------------------------------------------|
B|-3---5---0---0-------------------------------------------------------------|
G|-4---6---7---9-------------------------------------------------------------|
D|-4---6---7---9-------------------------------------------------------------|
A|-2---4---5---7-------------------------------------------------------------|
D|-x---x---x---x-------------------------------------------------------------|

Riff 3 : Chorus

e|-0---0---0---0---0---0---0---0---------------------------------------------|
B|-10--0---0---10--10--0---10--0---------------------------------------------|
G|-9---9---9---11--9---7---9---9---------------------------------------------|
D|-11--9---11--11--12--9---11--9---------------------------------------------|
A|-0---7---11--9---0---9---0---7---------------------------------------------|
D|-x---x---x---x---0---x---x---x---------------------------------------------|

Well that's it the version he plays at Wembley :) 
 
Tap to rate this tab
# A B C D E F G H I J K L M N O P Q R S T U V W X Y Z