Song name
# A B C D E F G H I J K L M N O P Q R S T U V W X Y Z

Bigbang - Girl In Oslo tab

Author/Artist: bigbang
Title: girl in oslo
Album: clouds rolling by
Transcribed by: magnus reiten
Email: magnus_reiten@hotmail.com

to play along with the record, tune 1 step down. the playing on this song is very loose, 
this tab isn't meant to be note perfect.

------------------------------------------------------------------------------|
-5---5---5---5---7-----5-----------5---7---5----------------------------------|
-5---5---5---5---7-----5--0--5-----5---7---5----------------------------------|
-7---7---7---7---7-----5--0--7-----7---7---7----------------------------------|
-0---0---0---0---0--0--0-----0--0--0---0---0----3--5/7--7-------3-------------|
---------------------------------------------------3/5--5---3h5---5-----------|
 above is the main riff of the song. It is repeated with minor variations.

------------------------------------------------------------------------------|
-3----------------------------------------------------------------------------|
-2----------------------------------------------------------------------------|
-0----------------------------------------------------------------------------|
------------------------------------------------------------------------------|
------------------------------------------------------------------------------|
 play around with this chord for the bridge (i call you everyday...)

------------7-----------------------------------------------------------------|
-5----------5-----------------------------------------------------------------|
-5----------5---------------------------------------------5--7--7b8rp5---7--5-|
-7----------7------------5-----5-----5-----5-----5h7--------------------------|
-0----------0--------5h7---5h7---5h7---5h7---5h7------------------------------|
-----------------------------------------------------5------------------------|


----------5-------------------------------------------------------------------|
------------5-----------------------------------------------------------------|
-7--7b9-------7b8--5----------------------------------------------------------|
---------------------7vvvvvvv-------------------------------------------------|
------------------------------------------------------------------------------|
------------------------------------------------------------------------------|
 "solo"

-3-----2-----1-----0----------------------------------------------------------|
-3-----3-----3-----3----------------------------------------------------------|
-2-----2-----2-----2----------------------------------------------------------|
-0-----0-----0-----0----------------------------------------------------------|
------------------------------------------------------------------------------|
------------------------------------------------------------------------------|
 for the last bridge (i get up early)
Tap to rate this tab
# A B C D E F G H I J K L M N O P Q R S T U V W X Y Z