Song name
# A B C D E F G H I J K L M N O P Q R S T U V W X Y Z

Bill Conti - James Bond Theme tab

                 James Bond Theme
tabbed by matz3k
1. Part
e|----7------------7------------77777-----------------------------------------|
B|----5------------5------------55555-----------------------------------------|
G|----6------------6------------66666-----------------------------------------|
D|----5----------- 5------------55555-----------------------------------------|
A|----------------------------------------------------------------------------|
E|---------7-------------7----------------------------------------------------|

e|---0-------0-------0----------0000-----------------------------------------|
B|---0-------1-------2----------1111-----------------------------------------|
G|---0-------0-------0----------0000-----------------------------------------|x2
D|---2-------2-------2----------2222-----------------------------------------|
A|---2-------2-------2----------2222-----------------------------------------|
E|---0-------0-------0----------0000-----------------------------------------|


e|---------------------------------------------------------------------------|
B|---------------------------------------------------------------------------|
G|---------------------------------------------------------------------------|x2
D|---------------------------------------------------------------------------|
A|---------------------------------------------------------------------------|
E|--0---2---2---2---2---0---0---0---0---3---3---3---3--2---2---2-------------|


e|---------------------------------------------------------------------------|
B|---------------------------------------------------------------------------|
G|---------------------------------------------------------------------------|
D|--------------------------------------------------1--0---------------------|
A|--------------------------------------------------------2--0--2------------|
E|--0--2--2--2--2--0--0--0--0--3--3--3--3--2--1--0---------------------------|


e|---------------------------------------------------------------------------|
B|--------4--3---------------------------------------------------------------|
G|-----------------3--4--5h7p5p4---------------------------------------------|
D|--2--5--------5--------------------2--4------------------------------------|
A|--------------------------------2------------------------------------------|
E|---------------------------------------------------------------------------|

e|---------------------------------------------------------------------------|
B|--------4--3---------------------------------------------------------------|
G|-----------------3--4--5h7p5p4---------------------------------------------|
D|--2--5--------5--------------------1--2------------------------------------|
A|--------------------------------2------------------------------------------|
E|---------------------------------------------------------------------------|


e|-------------------------------------------0-------------------------------|
B|--------4--3--------7--6---------10--9-----7-------------------------------|
G|-------------------------------------------8-------------------------------|
D|--2--5--------5--8--------8--11------------9-------------------------------|
A|-------------------------------------------10------------------------------|
E|-------------------------------------------0-------------------------------|
Tap to rate this tab
 
# A B C D E F G H I J K L M N O P Q R S T U V W X Y Z