Song name
# A B C D E F G H I J K L M N O P Q R S T U V W X Y Z

Billy Cobham - Stratus tab

-------------------------------------------------------------------------------
			     STRATUS - Billy Cobham
-------------------------------------------------------------------------------
Tabbed by: sugapablo
Album: Spectrum (1973) 

Tuning: Standard

Chorus:
e|---------------------------------------------------------------------------|
B|---------------------------------------------------------------------------|
G|---7-9---7h9----7-9-7----7-9---7h9--/11-9\7--------------------------------|
D|-9-----9------9--------9-----9--------------9------------------------------|
A|---------------------------------------------------------------------------|
E|---------------------------------------------------------------------------|

e|---------------------------------------------------------------------------|
B|---------------------------------------------------------------------------|
G|---7-9---7h9----7-9-7----7-9---7h9--/11-11-9--9p7--------------------------|
D|-9-----9------9--------9-----9--------------------9-9----------------------|
A|---------------------------------------------------------------------------|
E|---------------------------------------------------------------------------|


Rhythm bass line:
G|---------------------------------------------------------------------------|
D|---------------------------------------------------------------------------|
A|-0h2-2-2--0h2-2-2--0h2-2-2--0h2-2-2----------------------------------------|
E|---------------------------------------------------------------------------|


Rhythm riff:
e|---------------------------------------------------------------------------|
B|---------------------------------------------------------------------------|
G|-/11-9\7-9p7---------7-----------------------------------------------------|
D|-------------9-7-9-9-------------------------------------------------------|
A|---------------------------------------------------------------------------|
E|---------------------------------------------------------------------------|


Outro:
e|---------------------------------------------------------------------------|
B|---------------------------------------------------------------------------|
G|---------------------------------------------------------------------------|
D|-/9-9-7-7-6--9p7----5h6h7--------------------------------------------------|
A|-----------------9---------------------------------------------------------|
E|---------------------------------------------------------------------------|

Tap to rate this tab
# A B C D E F G H I J K L M N O P Q R S T U V W X Y Z