Guitaretab - guitar tabs
Song name
# A B C D E F G H I J K L M N O P Q R S T U V W X Y Z

Billy Cobham - Red Baron tab

Red Baron
Billy Cobham
Tab by Almir Nametak(mokra@freenetname.co.uk)


Gm7  C9  all the way
[ Tab from: http://www.guitaretab.com/b/billy-cobham/85646.html ]
E---3-------------------3---------------------------3------------|
B----------------------------------23---23---23------------------|
G--------------3-2-23----------------32---32---32----------------|
D----5--3/5555----5--5---5--3/5555-----5----5----5---5-----------|
A----------------------------------------------------------------|
E----------------------------------------------------------------|


E-------------------------------3--------------------------------|
B------------------------------3-3-------------------------------|
G-----------3-2--23------3--56-----3---32--2---------2-2/1------|
D----3/5555----5---5---5----------5------5--5--3-35--------------|
A-----------------------------------5-----------5----------------|
E----------------------------------------------------------------|
Related for Red Baron tab