Guitaretab - guitar tabs
Song name
# A B C D E F G H I J K L M N O P Q R S T U V W X Y Z

Billy Squier - Lonely Is The Night tab

                                               Lonely is the Night *SOLO*


this is the first thing iv ever tabbed out on my own but i did it because i cant find 
solo for this song ANYWHERE
and iv been trying to learn it, and im sure many of u hav that problem also. it is 
a pretty easy solo, if u
think part of it is in-correct please contact me at snwboardkid96@hotmail,com and make 
subject guitar tab so i can
fix it... this is a rough guess, but it sounds about right...

an excellent version of the rest of the tab can b found here...

http://home.comcast.net/~badguitar/LonelyIsTheNight.txt

and a good visual here...

http://www.youtube.com/watch?v=VAABhA_5ICQ&feature=related

-------------------------|
-15br--15br--15br--15br--|
-14br--14br--14br--14br--|
-------------------------|
-------------------------|
-------------------------|
[ Tab from: http://www.guitaretab.com/b/billy-squier/128735.html ]
----------------------------------------------------------------|
----------------------------------------------------------------|
----------------------------------------------------------------|
------------------------------------------------3----------3----|
-3h5p3h5p3h5p3h5p3h5p3h5p3h5p3h5~~----3h5p3-------5--3h5p3---5--|
----------------------------------------------5-----------------|

--------------------------------------------------------------------------15b~r--12h14p12-----|
------------4~b~r~b~r~~---------17-------17----18----17------------17---------------------12--|
--------3-5-5~b~r~b~r~~--/16-16----16-16----16----16----16--16--16----16----------------------|
----3-5---------------------------------------------------------------------------------------|
3-5-------------------------------------------------------------------------------------------|
----------------------------------------------------------------------------------------------|


-17b~r--17b-17b-17b-15-21b~~r--19-17h18p17h18p17-15h16p15-17-15~~~-|
-------------------------------------------------------------------|
-------------------------------------------------------------------|
-------------------------------------------------------------------|
-------------------------------------------------------------------|
-------------------------------------------------------------------|

listen to the song for timing
Related for Lonely Is The Night tab