Guitaretab - guitar tabs
Song name
# A B C D E F G H I J K L M N O P Q R S T U V W X Y Z

Billy Talent - The Dead Cant Testify tab

-------------------------------------------------------------------------------
			     The Dead Canít Testify Ė Billy Talent
-------------------------------------------------------------------------------
Tabbed by:PT-E
Email:

Tuning:Drop D

  Intro
e|---------------------------------------------------------------------------|
B|---------------------------------------------------------------------------|
G|---------------------------------------------------------------------------|
D|---------------------------------------------------------------------------|
A|---------------------------------------------------------------------------|
D|-0-5h8-8p5-5h8-8p5-5h8-8p5-5h8-8p5-----------------------------------------|

Guitar 1  2x
e|---------------------------------------------------------------------------|
B|---------------------------------------------------------------------------|
G|---------------------------------------------------------------------------|
D|---------------------------------------------------------------------------|
A|-0-5-8-0-8-5-0-0-5-8-0-8-5--0-7-10-0-10-7-0-0-7-10-0-10-7------------------|
D|-0-5-8-0-8-5-0-0-5-8-0-8-5--0-7-10-0-10-7-0-0-7-10-0-10-7------------------|

e|---------------------------------------------------------------------------|
B|---------------------------------------------------------------------------|
G|---------------------------------------------------------------------------|
D|---------------------------------------------------------------------------|
A|-0-4-7-0-7-4-0-0-4-7-0-7-4--0-5-8-0-8-5-0-0-5-8-0-8-5----------------------|
D|-0-4-7-0-7-4-0-0-4-7-0-7-4--0-5-8-0-8-5-0-0-5-8-0-8-5----------------------|

Guitar 2   2x
e|--------------------|
B|--------------------|
G|-------------5-7----|
D|-------5-7-8--------|
A|-5-7-9--------------|
D|--------------------|


 Verse
e|--6------------------5-------------------8-------------------6-------------|
B|--8------------------7-------------------10------------------8-------------|
G|--7------------------7-------------------11------------------7-------------|
D|---------------------------------------------------------------------------|
A|---------------------------------------------------------------------------|
D|---------------------------------------------------------------------------|

e|--6------------------5-------------------5---------------------------------|
B|--8------------------7-------------------7-------------------8-------------|
G|--7------------------7-------------------5-------------------7-------------|
D|-------------------------------------------------------------8-------------|
A|---------------------------------------------------------------------------|
D|---------------------------------------------------------------------------|




  2x
e|---------------------------------------------------------------------------|
B|---------------------------------------------------------------------------|
G|---------------------------------------------------------------------------|
D|-------1-------------------------------------------------------------------|
A|-------1----------------0-5-7-0-7-5-0-0-5-7-0-7-5--------------------------|
D|-------1----------------0-5-7-0-7-5-0-0-5-7-0-7-5--------------------------|


e|----------------------------------------------------------10101010101010--|
B|----------------------------------------7-7-7-7-7-7-7-7-8-10101010101010--|
G|----------------------------------------7-7-7-7-7-7-7-7-7-7-7-7-7-7-7-7---|
D|-------1---------4--------5--7--8--10---0-0-0-0-0-0-0-0-0-0-0-0-0-0-0-0---|
A|-------1---------4--------5--7--8--10---0-0-0-0-0-0-0-0-0-0-0-0-0-0-0-0---|
D|-------1---------4--------5--7--8--10---0-0-0-0-0-0-0-0-0-0-0-0-0-0-0-0---|


Chorus 2x
  Guitar 1
e|---------------------------------------------------------------------------|
B|---------------------------------------------------------------------------|
G|---------------------------------------------------------------------------|
D|---------------------------------------------------------------------------|
A|-0-5-8-0-8-5-0-0-5-8-0-8-5--0-7-10-0-10-7-0-0-7-10-0-10-7------------------|
D|-0-5-8-0-8-5-0-0-5-8-0-8-5--0-7-10-0-10-7-0-0-7-10-0-10-7------------------|

e|---------------------------------------------------------------------------|
B|---------------------------------------------------------------------------|
G|---------------------------------------------------------------------------|
D|---------------------------------------------------------------------------|
A|-0-4-7-0-7-4-0-0-4-7-0-7-4--0-5-8-0-8-5-0-0-5-8-0-8-5----------------------|
D|-0-4-7-0-7-4-0-0-4-7-0-7-4--0-5-8-0-8-5-0-0-5-8-0-8-5----------------------|


  Guitar 2   2x
e|--------------------|
B|--------------------|
G|-------------5-7----|
D|-------5-7-8--------|
A|-5-7-9--------------|
D|--------------------|



  2x
e|---------------------------------------------------------------------------|
B|---------------------------------------------------------------------------|
G|---------------------------------------------------------------------------|
D|-------1-------------------------------------------------------------------|
A|-------1----------------0-5-7-0-7-5-0-0-5-7-0-7-5--------------------------|
D|-------1----------------0-5-7-0-7-5-0-0-5-7-0-7-5--------------------------|

[ Tab from: http://www.guitaretab.com/b/billy-talent/189014.html ]
e|----------------------------------------------------------1010101010101010-|
B|----------------------------------------7-7-7-7-7-7-7-7-8-1010101010101010-|
G|----------------------------------------7-7-7-7-7-7-7-7-7-7-7-7-7-7-7-7-7--|
D|-------1---------4--------5--7--8--10---0-0-0-0-0-0-0-0-0-0-0-0-0-0-0-0-0--|
A|-------1---------4--------5--7--8--10---0-0-0-0-0-0-0-0-0-0-0-0-0-0-0-0-0--|
D|-------1---------4--------5--7--8--10---0-0-0-0-0-0-0-0-0-0-0-0-0-0-0-0-0--|



  Chorus 2x
e|---------------------------------------------------------------------------|
B|---------------------------------------------------------------------------|
G|---------------------------5-5-5-5-5-5-------------------------------------|
D|-8-8-8-8-8-8--3-3-3-3-3-3--5-5-5-5-5-5--5-5-5-5-5-5------------------------|
A|-8-8-8-8-8-8--3-3-3-3-3-3--3-3-3-3-3-3--5-5-5-5-5-5------------------------|
D|-8-8-8-8-8-8--3-3-3-3-3-3---------------5-5-5-5-5-5------------------------|


e|-------------------------------------------------------------------1010101010|
B|-----------------------------------------------------7-7-7-7-7-7-8-1010101010|
G|-----------------------------------------------------7-7-7-7-7-7-7-7-7-7-7-7-|
D|-8-8-8-8-8-8--3-3-3-3-3-3--1-1-1-1-1-1--5-5-5-5-5-5--0-0-0-0-0-0-0-0-0-0-0-0-|
A|-8-8-8-8-8-8--3-3-3-3-3-3--1-1-1-1-1-1--5-5-5-5-5-5--0-0-0-0-0-0-0-0-0-0-0-0-|
D|-8-8-8-8-8-8--3-3-3-3-3-3--1-1-1-1-1-1--5-5-5-5-5-5--0-0-0-0-0-0-0-0-0-0-0-0-|


 Solo 2x
e|---------------------------------------------------------------------------|
B|---------------------------------------------------------------------------|
G|-------------5-7p0---------7h9p7p0------7p0--------------------------------|
D|-------5-7-8-------8p0-5p0---------10p0-----8\10-12p0-7p0-4p0-10-8-7-------|
A|-5-7-9---------------------------------------------------------------------|
D|---------------------------------------------------------------------------|

e|---------------------------------------------------------------------------|
B|---------------------------------------------------------------------------|
G|---------------------------------------------------------------------------|
D|-7h8-10p0-7p0-4p0-10h12p10p0-8p7h10p0-5h7h8p0-5p0-8p0-7p5------------------|
A|---------------------------------------------------------------------------|
D|---------------------------------------------------------------------------|


  2x
e|---------------------------------------------------------------------------|
B|---------------------------------------------------------------------------|
G|---------------------------------------------------------------------------|
D|-------1-------------------------------------------------------------------|
A|-------1----------------0-5-7-0-7-5-0-0-5-7-0-7-5--------------------------|
D|-------1----------------0-5-7-0-7-5-0-0-5-7-0-7-5--------------------------|


e|----------------------------------------------------------1010101010101010-|
B|----------------------------------------7-7-7-7-7-7-7-7-8-1010101010101010-|
G|----------------------------------------7-7-7-7-7-7-7-7-7-7-7-7-7-7-7-7-7--|
D|-------1---------4--------5--7--8--10---0-0-0-0-0-0-0-0-0-0-0-0-0-0-0-0-0--|
A|-------1---------4--------5--7--8--10---0-0-0-0-0-0-0-0-0-0-0-0-0-0-0-0-0--|
D|-------1---------4--------5--7--8--10---0-0-0-0-0-0-0-0-0-0-0-0-0-0-0-0-0--|


Chorus 2x
e|---------------------------------------------------------------------------|
B|---------------------------------------------------------------------------|
G|---------------------------5-5-5-5-5-5-------------------------------------|
D|-8-8-8-8-8-8--3-3-3-3-3-3--5-5-5-5-5-5--5-5-5-5-5-5------------------------|
A|-8-8-8-8-8-8--3-3-3-3-3-3--3-3-3-3-3-3--5-5-5-5-5-5------------------------|
D|-8-8-8-8-8-8--3-3-3-3-3-3---------------5-5-5-5-5-5------------------------|

e|-------------------------------------------------------------------1010101010|
B|-----------------------------------------------------7-7-7-7-7-7-8-1010101010|
G|-----------------------------------------------------7-7-7-7-7-7-7-7-7-7-7-7-|
D|-8-8-8-8-8-8--3-3-3-3-3-3--1-1-1-1-1-1--5-5-5-5-5-5--0-0-0-0-0-0-0-0-0-0-0-0-|
A|-8-8-8-8-8-8--3-3-3-3-3-3--1-1-1-1-1-1--5-5-5-5-5-5--0-0-0-0-0-0-0-0-0-0-0-0-|
D|-8-8-8-8-8-8--3-3-3-3-3-3--1-1-1-1-1-1--5-5-5-5-5-5--0-0-0-0-0-0-0-0-0-0-0-0-|



e|---------------------------------------------------------------------------|
B|---------------------------------------------------------------------------|
G|---------------------------------------------------------------------------|
D|---------------------------------------------------------------------------|
A|---------------------------------------------------------------------------|
D|-0-5h8-8p5-5h8-8p5-5h8-8p5-5h8-8p5-----------------------------------------|


e|---------------------------------------------------------------------------|
B|---------------------------------------------------------------------------|
G|---------------------------------------------------------------------------|
D|---------------------------------------------------------------------------|
A|-0-5-8-0-8-2-0-0-5-8-0-8-5--0-5-8-0-8-5-0-0-5-8-0-8-5----------------------|
D|-0-5-8-0-8-5-0-0-5-8-0-8-5--0-5-8-0-8-5-0-0-5-8-0-8-5----------------------|




| /  slide up
| \  slide down
| h  hammer-on
| p  pull-off
| ~  vibrato
| +  harmonic
| x  Mute note
===============================================================================
Related for The Dead Cant Testify tab