Song name
# A B C D E F G H I J K L M N O P Q R S T U V W X Y Z

Billy Talent - Lies tab

Lies
Billy Talent

Drop-D Tuning

Intro
e|------------------------------------------0-----------------|
B|------------------------------------------1h3---------------|
G|------------------------------------------0-----5------4----|
D|---9-------9-/-10--9-------7-----------2-----------2---2----|
A|------------------------------------3--------------2---2----|
D|-------5-----/-7-------0------0--------------------2---2----|

e|--------------------------------------------------0---0---|
B|--------------------------------------------------3---0---|
G|------------------------------------------0h2-----2---2---|
D|---9-------9-/-10--9-------7-----------2----------2---2---|
A|------------------------------------3-------------0---0---|
D|-------5-----/-7-------0------0---------------------------|
 (Hold the G note on the 5th fret of D to slide to the A note)

Verse (Let ring)
e|--0--------0----0----0----0----0--------------------------------------|
B|--0---5----7----5----8-8--7-7--5-5--5-5b-----5-5b-----5-5b------5-5b--|
G|--0---x----0----0----0----0----0--------------------------------------|
D|--2---2----7----5----9----7----5----2-2------2-2------2-2-------2-2---|
A|--3---2----5----3----7----5----3----2-2------2-2------2-2-------2-2---|
D|------2-----------------------------2-2------2-2------2-2-------2-2---|

e|--0--------0----0----0----0----0--------------------------------------|
B|--0---5----7----5----8-8--7-7--5-5--5-5b-----5-5b-----5-5b------------|
G|--0---x----0----0----0----0----0--------------------------------------|
D|--2---2----7----5----9----7----5----2-2------2-2------2-2----2-5-2-0--|
A|--3---2----5----3----7----5----3----2-2------2-2------2-2----2-5-2-0--|
D|------2-----------------------------2-2------2-2------2-2----2-5-2-0--|

Chorus
e|-------------------------------------------------------|
B|-------------------------------------------------------|
G|-------------------4-----2-----5--5-/-7--5-----4-------|
D|---5---5---5---7---0--0--0--0--5--5-/-7--2--2--2--2----|
A|---5---5---5---7---0--0--0--0--3--3-/-5--2--2--2--2----|
D|---5---5---5---7---0--0--0--0------------2--2--2--2----|

e|-----------------------------------------0--0-|
B|-----------------------------------------3--0-|
G|-------------------4-----2-----5-5-5-5---2--2-|
D|---5---5---5---7---0--0--0--0--5-5-5-5---2--2-|
A|---5---5---5---7---0--0--0--0--3-3-3-3---0--0-|
D|---5---5---5---7---0--0--0--0-----------------|

Verse (let ring)
e|--0--------0----0----0----0----0--------------------------------------|
B|--0---5----7----5----8-8--7-7--5-5--5-5b-----5-5b-----5-5b------------|
G|--0---x----0----0----0----0----0--------------------------------------|
D|--2---2----7----5----9----7----5----2-2------2-2------2-2----2-5-2-0--|
A|--3---2----5----3----7----5----3----2-2------2-2------2-2----2-5-2-0--|
D|------2-----------------------------2-2------2-2------2-2----2-5-2-0--|

Chorus
e|-------------------------------------------------------|
B|-------------------------------------------------------|
G|-------------------4-----2-----5--5-/-7--5-----4-------|
D|---5---5---5---7---0--0--0--0--5--5-/-7--2--2--2--2----|
A|---5---5---5---7---0--0--0--0--3--3-/-5--2--2--2--2----|
D|---5---5---5---7---0--0--0--0------------2--2--2--2----|

e|-----------------------------------------0--0-|
B|-----------------------------------------3--0-|
G|-------------------4-----2-----5-5-5-5---2--2-|
D|---5---5---5---7---0--0--0--0--5-5-5-5---2--2-|
A|---5---5---5---7---0--0--0--0--3-3-3-3---0--0-|
D|---5---5---5---7---0--0--0--0-----------------|

Interlude
e|--------------------------------------------------------------------------|
B|-------8-8-----8-8-----8---7-5-3------------------------------------------|
G|-------0-0-----0-0-----0---0-0-0-----1111111111111111--1111111111111111---|
D|----0--9-9--0--9-9--0--9---7-5-4------9-9-9-9-9-9-9-9--1010101010101010---|
A|----0--7-7--0--7-7--0--7---5-3-2------9-9-9-9-9-9-9-9--1010101010101010---|
D|----0-------0-------0-----------------9-9-9-9-9-9-9-9--1010101010101010---|

e|------------------------------------------0-----------------|
B|------------------------------------------1h3---------------|
G|------------------------------------------0-----5------4----|
D|---9-------9-/-10--9-------7-----------2-----------2---2----|
A|------------------------------------3--------------2---2----|
D|-------5-----/-7-------0------0--------------------2---2----|

e|--------------------------------------------------0---0---|
B|--------------------------------------------------3---0---|
G|------------------------------------------0h2-----2---2---|
D|---9-------9-/-10--9-------7-----------2----------2---2---|
A|------------------------------------3-------------0---0---|
D|-------5-----/-7-------0------0---------------------------|

Chorus
e|-------------------------------------------------------|
B|-------------------------------------------------------|
G|-------------------4-----2-----5--5-/-7--5-----4-------|
D|---5---5---5---7---0--0--0--0--5--5-/-7--2--2--2--2----|
A|---5---5---5---7---0--0--0--0--3--3-/-5--2--2--2--2----|
D|---5---5---5---7---0--0--0--0------------2--2--2--2----|

e|-----------------------------------------0--0----|
B|-----------------------------------------3--0----|
G|-------------------4-----2-----5-5-5-5---2--2----|
D|---5---5---5---7---0--0--0--0--5-5-5-5---2--2--5-|
A|---5---5---5---7---0--0--0--0--3-3-3-3---0--0--5-|
D|---5---5---5---7---0--0--0--0------------------5-|
Tap to rate this tab
 
# A B C D E F G H I J K L M N O P Q R S T U V W X Y Z