Song name
# A B C D E F G H I J K L M N O P Q R S T U V W X Y Z

Billy Talent - Tears Into Wine tab

BILLY TALENT-TEARS INTO WINE
----------------------------

Tabbed by Ozzy at parkourdemonozzy@hotmail.com

Tuning: Drop D (DADGBe)

Some bits may be a bit wrong but this is my first song fully tabbed. Most of it sounds
but if you have any corrections you'd like to make just email me. I made the solo and
fairly easy to play and I also put in a few palm mutes that aren't in the song but I put 
for effect. Dunno what else to put, so I hope you like it!

/ = slide
b = bend
h = hammer on
p = pull off
r = release bend
x = palm mute
:) = smiley face

INTRO
|--------------------------------------------------------------------------|
|--6-----------------------------------------------------------------------|
|6---8-6-5-----------5-6--------------3-3h5p3---3-3h5p3---3-3h5p3-/6-6-5-5-|
|----------8-6---6-8-----8-6-4-3-3--4---------3---------2------------------|
|--------------8-----------------------------------------------------------|
|--------------------------------------------------------------------------|

|-------------------------------------------------------------------------|
|--6-----------------------6-6b7-6----------------------------------------|
|6---8-6-5-----------5-6-8-----------3-3h5p3---3-3h5p3---3-3h5p3-/6-6-5-5-|
|----------8-6---6-8---------------4---------3---------2------------------|
|--------------8----------------------------------------------------------|
|-------------------------------------------------------------------------|


VERSE
|----------------------------------------------------------------------------|
|----------------------------------------------------------------------------|
|---------66666666----------66666666-/8-888888-------------------------------|
|8-888888-66666666-4-444444-66666666-/8-888888-88888888-3-3-3-3--4-4-4-7-7-7-|
|8-888888-44444444-4-444444-44444444-/6-666666-88888888-3-3-3-3--4-4-4-7-7-7-|
|8-888888----------4-444444--------------------88888888-3-3-3-3--4-4-4-7-7-7-|

|-------------------------------------------------------|
|-------------------------------------------------------|
|---------66666666----------66666666-/8-888888----------|
|8-888888-66666666-4-444444-66666666-/8-888888-88888888-|
|8-888888-44444444-4-444444-44444444-/6-666666-88888888-|
|8-888888----------4-444444--------------------88888888-|

|-------------------|
|-------------------|
|55555555-6666-5555-|
|55555555-6666-5555-|
|33333333-4444-3333-|
|-------------------|


PRECHORUS
|--------------------------------------------------------------------|
|------2-----2---2-------2-----2---2---------------------------------|
|----3-----3-----------3-----3-------------xx6-xx8-------------------|
|4-3-----3-----3---4-3-----3-----3---4-xx6-xx6-xx8-----xx3-3-3-6-6-6-|
|4-----------------4-----------------4-xx6-xx4-xx6-----xx3-3-3-6-6-6-|
|4-----------------4-----------------4-xx6-------------xx3-3-3-6-6-6-|


CHORUS
|------------------------------------------------------------------------|
|------------------------------------------------------------------------|
|---------66666666----------66666666-/8-888888---------------------------|
|8-888888-66666666-4-444444-66666666-/8-888888-88888888-3-3-3-3--4-4-4-1-|
|8-888888-44444444-4-444444-44444444-/6-666666-88888888-3-3-3-3--4-4-4-1-|
|8-888888----------4-444444--------------------88888888-3-3-3-3--4-4-4-1-|


INTRO RIFF
|--------------------------------------------------------------------------|
|--6-----------------------------------------------------------------------|
|6---8-6-5-----------5-6--------------3-3h5p3---3-3h5p3---3-3h5p3-/6-6-5-5-|
|----------8-6---6-8-----8-6-4-3-3--4---------3---------2------------------|
|--------------8-----------------------------------------------------------|
|--------------------------------------------------------------------------|


VERSE 2
|----------------------------------------------------------------------------|
|----------------------------------------------------------------------------|
|---------66666666----------66666666-/8-888888-------------------------------|
|8-888888-66666666-4-444444-66666666-/8-888888-88888888-3-3-3-3--4-4-4-7-7-7-|
|8-888888-44444444-4-444444-44444444-/6-666666-88888888-3-3-3-3--4-4-4-7-7-7-|
|8-888888----------4-444444--------------------88888888-3-3-3-3--4-4-4-7-7-7-|

|-------------------------------------------------------|
|-------------------------------------------------------|
|---------66666666----------66666666-/8-888888----------|
|8-888888-66666666-4-444444-66666666-/8-888888-88888888-|
|8-888888-44444444-4-444444-44444444-/6-666666-88888888-|
|8-888888----------4-444444--------------------88888888-|

|-------------------|
|-------------------|
|55555555-6666-5555-|
|55555555-6666-5555-|
|33333333-4444-3333-|
|-------------------|


PRECHORUS
|--------------------------------------------------------------------|
|------2-----2---2-------2-----2---2---------------------------------|
|----3-----3-----------3-----3-------------xx6-xx8-----xx6-6-6-------|
|4-3-----3-----3---4-3-----3-----3---4-xx6-xx6-xx8-----xx6-6-6-3-3-3-|
|4-----------------4-----------------4-xx6-xx4-xx6-----xx4-4-4-3-3-3-|
|4-----------------4-----------------4-xx6---------------------3-3-3-|


CHORUS
|----------------------------------------------------------------------------|
|----------------------------------------------------------------------------|
|---------66666666----------66666666-/8-888888-------------------------------|
|8-888888-66666666-4-444444-66666666-/8-888888-88888888-3-3-3-3--4-4-4-1-1-1-|
|8-888888-44444444-4-444444-44444444-/6-666666-88888888-3-3-3-3--4-4-4-1-1-1-|
|8-888888----------4-444444--------------------88888888-3-3-3-3--4-4-4-1-1-1-|

|------------------------------------------------------------------------|
|------------------------------------------------------------------------|
|---------66666666----------66666666-/8-888888---------------------------|
|8-888888-66666666-4-444444-66666666-/8-888888-88888888-3-3-3-3--4-4-4-1-|
|8-888888-44444444-4-444444-44444444-/6-666666-88888888-3-3-3-3--4-4-4-1-|
|8-888888----------4-444444--------------------88888888-3-3-3-3--4-4-4-1-|


SOLO
|--------------------|----------------------|------------------------5--55---------|
|--------------------|----------------------|------------------------6--66-7-7---4-|
|3-----3-5-6---------|3-------3-5-6---------|8-6-5-6-8-5-6-5h6p5---6-5--55-6-6---3-|
|--3---------6-4-3---|--6-4-6-------6-4-3---|--------------------8---------4-4-3-1-|
|----4-------------4-|--------------------4-|--------------------------------------|
|--------------------|----------------------|--------------------------------------|

|------------------------------|---------------------------------|
|11-------11-13-14-------------|11----------11-13-14-------------|
|---10-------------13-11-10----|---13-11-13----------13-11-10----|
|------11-------------------11-|------------------------------11-|
|------------------------------|---------------------------------|
|------------------------------|---------------------------------|

|--------------------------------------------------------|
|-------------9-11---------------11-11-11-11-10-10-10-10-|
|8-10-8-10-11------8b10-8-6---6--10-10-10-10-10-10-10-10-|
|---------------------------8-8--11-11-11-11-10-10-10-10-|
|--------------------------------------------------------|
|--------------------------------------------------------|


PRECHORUS
|--------------------------------------------------------------------------|
|------7---------2-----2------2-----2-------7---------2-----2------2-----2-|
|------6-------3-----3------3-----3---------6-------3-----3------3-----3---|
|4-4-4-4-----3-----3------3-----3-----4-4-4-4-----3-----3------3-----3-----|
|4-4-4-4------------------------------4-4-4-4------------------------------|
|4-4-4-4------------------------------4-4-4-4------------------------------|

|--------------------------------------------------------------------------|
|------7---------2-----2------2-----2-------7---------2-----2------2-----2-|
|------6-------3-----3------3-----3---------6-------3-----3------3-----3---|
|4-4-4-4-----3-----3------3-----3-----4-4-4-4-----3-----3------3-----3-----|
|4-4-4-4------------------------------4-4-4-4------------------------------|
|4-4-4-4------------------------------4-4-4-4------------------------------|

|------------------------------------------------------------------------|
|------------------------------------------------------------------------|
|--------6-3-3-3-3-----------6-3-3-3-3---------xx6-xx8-----xx6-6-6-------|
|4-4-4-4-6-3-3-3-3-3-4-4-4-4-6-3-3-3-3-3-4-xx6-xx6-xx8-----xx6-6-6-3-3-3-|
|4-4-4-4-4-1-1-1-1-3-4-4-4-4-4-1-1-1-1-3-4-xx6-xx4-xx6-----xx4-4-4-3-3-3-|
|4-4-4-4-----------3-4-4-4-4-----------3-4-xx6---------------------3-3-3-|


CHORUS
|----------------------------------------------------------------------------|
|----------------------------------------------------------------------------|
|---------66666666----------66666666-/8-888888-------------------------------|
|8-888888-66666666-4-444444-66666666-/8-888888-88888888-3-3-3-3--4-4-4-1-1-1-|
|8-888888-44444444-4-444444-44444444-/6-666666-88888888-3-3-3-3--4-4-4-1-1-1-|
|8-888888----------4-444444--------------------88888888-3-3-3-3--4-4-4-1-1-1-|

|----------------------------------------------------------------------------|
|----------------------------------------------------------------------------|
|---------66666666----------66666666-/8-888888-------------------------------|
|8-888888-66666666-4-444444-66666666-/8-888888-88888888-3-3-3-3--4-4-4-1-1-1-|
|8-888888-44444444-4-444444-44444444-/6-666666-88888888-3-3-3-3--4-4-4-1-1-1-|
|8-888888----------4-444444--------------------88888888-3-3-3-3--4-4-4-1-1-1-|

|-------------------------------------------------------------------------------|
|--6-----------------------6-6b7-6--------------------------------------------2-|
|6---8-6-5-----------5-6-8-----------3-3h5p3---3-3h5p3------------------------3-|
|----------8-6---6-8---------------4---------3---------3-3-3-3--4-4-4-1-1-1---3-|
|--------------8---------------------------------------3-3-3-3--4-4-4-1-1-1---1-|
|------------------------------------------------------3-3-3-3--4-4-4-1-1-1-----|

:)
Tap to rate this tab
# A B C D E F G H I J K L M N O P Q R S T U V W X Y Z