Song name
# A B C D E F G H I J K L M N O P Q R S T U V W X Y Z

Billy Talent - Tears Into Wine tab

Help us improve GuitareTab! Take a short survey!
Billy Talent - Tears Into Wine

Tuning: droped d + 1/2 step down

Q=160

Intro:
eb-------------------------|------------------------|-----------------------|
Bb-------------------------|------------------------|-----------------------|
Gb--------11----9----------|------------------------|-------6-----7---------|
Db--12----------------12---|-11----9-----7-----4--7-|-9-----------------9---|
Ab-------------------------|------------------------|-----------------------|
Db-----9-----9-----9-----9-|----0-----0-----0--0----|-5--5-----5-----5-----5|


eb------------------------|----------------------|--------------------------|
Bb------------------------|----------------------|--------------------------|
Gb------------------------|-------4-----4-6-4----|-------4-----4--6--4------|
Db--7-----5-----4-----4---|-5--------------------|-4-----4-----4-----4------|
Ab------------------------|-2--------------------|-0------------------------|
Db-----0-----0-----0----0-|-2--2-----2---------2-|----0-----0-----------0---|


eb-------------------------|-------------------------|
Bb-------------------------|-------------------------|
Gb--------4-----4--6--4----|-7-----7-----6-----6-----|
Db-----3--------3-----3----|-4-----4-----4-----4-----|
Ab--4--------4-------------|-------------------------|
Db-----------------------0-|----4-----4-----4-----4--|


eb-------------------------|------------------------|-----------------------|
Bb-------------------------|------------------------|-----------------------|
Gb--------11----9----------|------------------------|-------6-----7-----9---|
Db--12----------------12---|-11----9-----7-----4--7-|-9---------------------|
Ab-------------------------|------------------------|-----------------------|
Db-----9-----9-----9-----9-|----0-----0-----0--0----|----5-----5-----5-----0|


eb-------------------------|----------------------|-------------------------|
Bb--7-----8-----7-----7----|----------------------|-------------------------|
Gb-------------------------|-------4-----4-6-4----|-------4-----4--6--4-----|
Db--7-----7-----7-----7----|-5-----2-----2---2----|-4-----4-----4-----4-----|
Ab-------------------------|-2--------------------|----0-----0-----------0--|
Db-----0-----0-----0----0--|-2--2-----2---------2-|----0-----0-----------0--|


eb-------------------------|-------------------------|
Bb-------------------------|-------------------------|
Gb--------4-----4--6--4----|-7-----7-----6-----6-----|
Db-----3--------3-----3----|-4-----4-----4-----4-----|
Ab--4--------4-------------|-------------------------|
Db-----------------------0-|----4-----4-----4-----4--|


Verse:
PM     . . . . . . . . . . . . . . . . . . . . . . . . . . . . . . . . . . . . . .
eb----------------|---------------|---------------|---------------|---------------|
Bb----------------|---------------|---------------|---------------|---------------|
Gb----------------|---------------|---------------|---------------|---------------|
Db-4---4-4-4-4-4-4|---------------|5-5-5-5-5-5-5-5|---------------|2-2-2-2-2-2-2-2|
Ab-2---2-2-2-2-2-2|0-0-0-0-0-0-0-0|5-5-5-5-5-5-5-5|0-0-0-0-0-0-0-0|2-2-2-2-2-2-2-2|
Db----------------|0-0-0-0-0-0-0-0|5-5-5-5-5-5-5-5|0-0-0-0-0-0-0-0|2-2-2-2-2-2-2-2|

PM . . . . . . . . . . . . . 
eb----------------|---------------|-----------------|
Bb----------------|---------------|-----------3--3--|
Gb----------------|6-6-6-6-6-6-6-6|--7--7-----3--3--|
Db-4-4-4-4-4-4-4-4|4-4-4-4-4-4-4-4|--5--5-----3--3--|
Ab-2-2-2-2-2-2-2-2|4-4-4-4-4-4-4-4|--5--5-----1--1--|
Db----------------|4-4-4-4-4-4-4-4|--5--5--0--------|

                                     |--3--|  

PM     . . . . . . . . . . . . . . . . . . . . . . . . . . . . . . . . . . . . . .
eb----------------|---------------|---------------|---------------|---------------|
Bb----------------|---------------|---------------|---------------|---------------|
Gb----------------|---------------|---------------|---------------|---------------|
Db-4---4-4-4-4-4-4|---------------|5-5-5-5-5-5-5-5|---------------|2-2-2-2-2-2-2-2|
Ab-2---2-2-2-2-2-2|0-0-0-0-0-0-0-0|5-5-5-5-5-5-5-5|0-0-0-0-0-0-0-0|2-2-2-2-2-2-2-2|
Db----------------|0-0-0-0-0-0-0-0|5-5-5-5-5-5-5-5|0-0-0-0-0-0-0-0|2-2-2-2-2-2-2-2|

PM . . . . . . . . . . . . . . . .
eb----------------|---------------|---------------|
Bb----------------|---------------|---------------|
Gb----------------|4-4-4-4-4-4-4-4|7-7-7-7-6-6-6-6|
Db-4-4-4-4-4-4-4-4|3-3-3-3-3-3-3-3|4-4-4-4-4-4-4-4|
Ab-2-2-2-2-2-2-2-2|4-4-4-4-4-4-4-4|4-4-4-4-4-4-4-4|
Db----------------|---------------|4-4-4-4-4-4-4-4|

                                     
Pre-Chorus (Half time Q=80):
eb-0----------------------------|    --0--0--0--0---------------|
Bb-0-----------3--------3-------|    --0--0--7--8---------------|
Gb-0-----------------0----------|    --0--0--0--0---------------|
Db-9--------4-----4--------4----| 2x --9--11-7--9---------------|
Ab-5-----2--------------------2-|    --5--7--5--7---------------|
Db-5----------------------------|    --5--7---------------------|


Chorus (Normal tempo):
eb----------|2-2-2-2-2-2-2-2|---------------|---------------|---------------|
Bb--7-7-----|3-3-3-3-3-3-3-3|7-7-8-8-8-7-7-7|---------------|7-7-8-8-8-7-7-7|
Gb--7-7-6-6-|4-4-4-4-4-4-4-4|7-7-7-7-7-7-7-7|---------------|7-7-7-7-7-7-7-7|
Db--7-7-4-4-|4-4-4-4-4-4-4-4|7-7-7-7-7-7-7-7|9-9-9-9-5-7-9-5|7-7-7-7-7-7-7-7|
Ab--5-5-4-4-|2-2-2-2-2-2-2-2|5-5-5-5-5-5-5-5|5-5-5-5-5-5-5-5|5-5-5-5-5-5-5-5|
Db--0-0-4-4-|---------------|0-0-0-0-0-0-0-0|5-5-5-5-5-5-5-5|0-0-0-0-0-0-0-0|


eb----------------|---------------|---------------|--------------------------|
Bb----------------|3-3-3-3-3-3-3-3|---------------|--------------------------|
Gb----------------|4-4-4-4-4-4-4-4|6-6-6-6-6-6-6-6|-7--7--6--4--4-0----------|
Db-5-5-5-4-2-4-5-2|4-4-4-4-4-4-4-4|4-4-4-4-4-4-4-4|-5--5--4--2--2-0----------|
Ab-2-2-2-2-2-2-2-2|2-2-2-2-2-2-2-2|4-4-4-4-4-4-4-4|-5--5--4--2--2-0----------|
Db-2-2-2-2-2-2-2-2|---------------|4-4-4-4-4-4-4-4|-5--5--4--2--2-0----------|
 
                                                    |--3--|  

1st half of the intro:

eb-------------------------|------------------------|-----------------------|
Bb-------------------------|------------------------|-----------------------|
Gb--------11----9----------|------------------------|-------6-----7---------|
Db--12----------------12---|-11----9-----7-----4--7-|-9-----------------9---|
Ab-------------------------|------------------------|-----------------------|
Db-----9-----9-----9-----9-|----0-----0-----0--0----|-5--5-----5-----5-----5|


eb------------------------|----------------------|--------------------------|
Bb------------------------|----------------------|--------------------------|
Gb------------------------|-------4-----4-6-4----|-------4-----4--6--4------|
Db--7-----5-----4-----4---|-5--------------------|-4-----4-----4-----4------|
Ab------------------------|-2--------------------|-0------------------------|
Db-----0-----0-----0----0-|-2--2-----2---------2-|----0-----0-----------0---|


eb-------------------------|-------------------------|
Bb-------------------------|-------------------------|
Gb--------4-----4--6--4----|-7-----7-----6-----6-----|
Db-----3--------3-----3----|-4-----4-----4-----4-----|
Ab--4--------4-------------|-------------------------|
Db-----------------------0-|----4-----4-----4-----4--|


Verse:
PM     . . . . . . . . . . . . . . . . . . . . . . . . . . . . . . . . . . . . . .
eb----------------|---------------|---------------|---------------|---------------|
Bb----------------|---------------|---------------|---------------|---------------|
Gb----------------|---------------|---------------|---------------|---------------|
Db-4---4-4-4-4-4-4|---------------|5-5-5-5-5-5-5-5|---------------|2-2-2-2-2-2-2-2|
Ab-2---2-2-2-2-2-2|0-0-0-0-0-0-0-0|5-5-5-5-5-5-5-5|0-0-0-0-0-0-0-0|2-2-2-2-2-2-2-2|
Db----------------|0-0-0-0-0-0-0-0|5-5-5-5-5-5-5-5|0-0-0-0-0-0-0-0|2-2-2-2-2-2-2-2|

PM . . . . . . . . . . . . . 
eb----------------|---------------|-----------------|
Bb----------------|---------------|-----------3--3--|
Gb----------------|6-6-6-6-6-6-6-6|--7--7-----3--3--|
Db-4-4-4-4-4-4-4-4|4-4-4-4-4-4-4-4|--5--5-----3--3--|
Ab-2-2-2-2-2-2-2-2|4-4-4-4-4-4-4-4|--5--5-----1--1--|
Db----------------|4-4-4-4-4-4-4-4|--5--5--0--------|

                                     |--3--|  

PM     . . . . . . . . . . . . . . . . . . . . . . . . . . . . . . . . . . . . . .
eb----------------|---------------|---------------|---------------|---------------|
Bb----------------|---------------|---------------|---------------|---------------|
Gb----------------|---------------|---------------|---------------|---------------|
Db-4---4-4-4-4-4-4|---------------|5-5-5-5-5-5-5-5|---------------|2-2-2-2-2-2-2-2|
Ab-2---2-2-2-2-2-2|0-0-0-0-0-0-0-0|5-5-5-5-5-5-5-5|0-0-0-0-0-0-0-0|2-2-2-2-2-2-2-2|
Db----------------|0-0-0-0-0-0-0-0|5-5-5-5-5-5-5-5|0-0-0-0-0-0-0-0|2-2-2-2-2-2-2-2|

PM . . . . . . . . . . . . . . . .
eb----------------|---------------|---------------|
Bb----------------|---------------|---------------|
Gb----------------|4-4-4-4-4-4-4-4|7-7-7-7-6-6-6-6|
Db-4-4-4-4-4-4-4-4|3-3-3-3-3-3-3-3|4-4-4-4-4-4-4-4|
Ab-2-2-2-2-2-2-2-2|4-4-4-4-4-4-4-4|4-4-4-4-4-4-4-4|
Db----------------|---------------|4-4-4-4-4-4-4-4|


Pre-Chorus (Half time):
eb-0----------------------------|    --0--0--0--0---------------|
Bb-0-----------3--------3-------|    --0--0--7--8---------------|
Gb-0-----------------0----------|    --0--0--0--0---------------|
Db-9--------4-----4--------4----| 2x --9--11-7--9---------------|
Ab-5-----2--------------------2-|    --5--7--5--7---------------|
Db-5----------------------------|    --5--7---------------------|


Chorus (Normal tempo):
eb----------|2-2-2-2-2-2-2-2|---------------|---------------|---------------|
Bb--7-7-----|3-3-3-3-3-3-3-3|7-7-8-8-8-7-7-7|---------------|7-7-8-8-8-7-7-7|
Gb--7-7-6-6-|4-4-4-4-4-4-4-4|7-7-7-7-7-7-7-7|---------------|7-7-7-7-7-7-7-7|
Db--7-7-4-4-|4-4-4-4-4-4-4-4|7-7-7-7-7-7-7-7|9-9-9-9-5-7-9-5|7-7-7-7-7-7-7-7|
Ab--5-5-4-4-|2-2-2-2-2-2-2-2|5-5-5-5-5-5-5-5|5-5-5-5-5-5-5-5|5-5-5-5-5-5-5-5|
Db--0-0-4-4-|---------------|0-0-0-0-0-0-0-0|5-5-5-5-5-5-5-5|0-0-0-0-0-0-0-0|


eb----------------|---------------|---------------|-------------------|
Bb----------------|3-3-3-3-3-3-3-3|---------------|-------------------|
Gb----------------|4-4-4-4-4-4-4-4|6-6-6-6-6-6-6-6|-7--7--6--4--4-0---|
Db-5-5-5-4-2-4-5-2|4-4-4-4-4-4-4-4|4-4-4-4-4-4-4-4|-5--5--4--2--2-0---|  2x
Ab-2-2-2-2-2-2-2-2|2-2-2-2-2-2-2-2|4-4-4-4-4-4-4-4|-5--5--4--2--2-0---|
Db-2-2-2-2-2-2-2-2|---------------|4-4-4-4-4-4-4-4|-5--5--4--2--2-0---|
 
                                                    |--3--|  

Solo (2nd guitar: verse)
eb----|--------------|------------|--------------|------------|--------------|
Bb----|--------------|------------|--------------|------------|5---3-2h3-5p2-|
Gb----|-4--------4-6-|7-----------|-4--------4h6-|7-----------|--------------|
Db--4-|----4---4-----|---7--5p4---|-5--7-5h7-----|---7--5p4---|5---4---------|
Ab----|------5-------|----------5-|--------------|----------5-|--------------|
Db----|--------------|------------|--------------|------------|--------------|

eb------------|-2----|3--------|7---------7-9-|10------------|7----------7h9|
Bb-3--2-----3-|-2----|3---5--7-|----7---7-----|----10--8p7---|8--10-8h10----|
Gb-------4----|-3----|4---4----|------7-------|------------7-|--------------|
Db------------|------|----5----|--------------|--------------|--------------|
Ab------------|------|---------|--------------|--------------|--------------|
Db------------|------|---------|--------------|--------------|--------------|
     

eb-10------------|---------------|7-----------|0----|7---6--|
Bb-----10--8p7---|8--7------8h10-|------------|0----|----5--|
Gb-------------7-|9----9/11------|--9br-9p7---|4----|7---6--|
Db---------------|---------------|----------9-|3----|-------|
Ab---------------|---------------|------------|4----|-------|
Db---------------|---------------|------------|-----|-------|

Bridge (Half time):
PM.  .  .    
eb----------0~--|----------------------------------|
Bb----------0~--|-----3-----3----------3-----3-----|
Gb----------0~--|---------0----------------0---0---|
Db----------5~--|---4---4-----4------4---4---------| 4x
Ab----------5~--|-2-------------2------------------|
Db-5--5--5--5~--|--------------------------------0-|
   |--3--|

eb---------------2--2--2--2----|    --------------|
Bb---------------3--3--3--3----|    --------7--8--|
Gb---------------4--4--4--4----|    --4--6--7--9--|
Db-5--5--5--5-0--4--4--4--4-4--| 2x --5--7--7--9--|
Ab-5--5--5--5-0--2--2--2--2-4--|    --5--7--5--7--|
Db-5--5--5--5-0-------------4--|    --5--7--------|
   |--3--|       |--3--|


Chorus (Normal tempo):
eb----------|2-2-2-2-2-2-2-2|---------------|---------------|---------------|
Bb--7-7-----|3-3-3-3-3-3-3-3|7-7-8-8-8-7-7-7|---------------|7-7-8-8-8-7-7-7|
Gb--7-7-6-6-|4-4-4-4-4-4-4-4|7-7-7-7-7-7-7-7|---------------|7-7-7-7-7-7-7-7|
Db--7-7-4-4-|4-4-4-4-4-4-4-4|7-7-7-7-7-7-7-7|9-9-9-9-5-7-9-5|7-7-7-7-7-7-7-7|
Ab--5-5-4-4-|2-2-2-2-2-2-2-2|5-5-5-5-5-5-5-5|5-5-5-5-5-5-5-5|5-5-5-5-5-5-5-5|
Db--0-0-4-4-|---------------|0-0-0-0-0-0-0-0|5-5-5-5-5-5-5-5|0-0-0-0-0-0-0-0|


eb----------------|---------------|---------------|-------------------|
Bb----------------|3-3-3-3-3-3-3-3|---------------|-------------------|
Gb----------------|4-4-4-4-4-4-4-4|6-6-6-6-6-6-6-6|-7--7--6--4--4-0---|
Db-5-5-5-4-2-4-5-2|4-4-4-4-4-4-4-4|4-4-4-4-4-4-4-4|-5--5--4--2--2-0---|  2x
Ab-2-2-2-2-2-2-2-2|2-2-2-2-2-2-2-2|4-4-4-4-4-4-4-4|-5--5--4--2--2-0---|
Db-2-2-2-2-2-2-2-2|---------------|4-4-4-4-4-4-4-4|-5--5--4--2--2-0---|
 
                                                    |--3--|  


                                                  
2nd half of the intro:

eb-------------------------|------------------------|-----------------------|
Bb-------------------------|------------------------|-----------------------|
Gb--------11----9----------|------------------------|-------6-----7-----9---|
Db--12----------------12---|-11----9-----7-----4--7-|-9---------------------|
Ab-------------------------|------------------------|-----------------------|
Db-----9-----9-----9-----9-|----0-----0-----0--0----|----5-----5-----5-----0|


eb-------------------------|----------------------|-------------------------|
Bb--7-----8-----7-----7----|----------------------|-------------------------|
Gb-------------------------|-------4-----4-6-4----|-------4-----4--6--4-----|
Db--7-----7-----7-----7----|-5-----2-----2---2----|-4-----4-----4-----4-----|
Ab-------------------------|-2--------------------|----0-----0-----------0--|
Db-----0-----0-----0----0--|-2--2-----2---------2-|----0-----0-----------0--|


eb----------------|-------------------2-------|
Bb----------------|-------------------3-------|
Gb-6-6-6-6-6-6-6-6|-7--7--6--4--4-0---4-------|
Db-4-4-4-4-4-4-4-4|-5--5--4--2--2-0---4-------|
Ab-4-4-4-4-4-4-4-4|-5--5--4--2--2-0---2-------|
Db-4-4-4-4-4-4-4-4|-5--5--4--2--2-0-----------|
 
                    |--3--|  
Related for Tears Into Wine tab