Song name
# A B C D E F G H I J K L M N O P Q R S T U V W X Y Z

Binocular - Deep tab

Deep

Intro/Stanzas
    A                   F#m              D                  E
e||-------------------|-----------------|-----------------|----------------|
B||----------9--------|--------9--------|--------7--------|-------9--------|
G||-------9----9------|------9---9------|------7---7------|-----9---9------|
D||----7----------7---|-----------------|-----------------|----------------|
A||-------------------|---9--------9/---|---5---------5/--|--7---------7---|
E||-------------------|-----------------|-----------------|----------------|

Refrain: 

   F#m                E
e||-----------------|----------------|
B||--------9--------|-------9--------|
G||------9---9------|-----9---9------|  (Struming)
D||-----------------|----------------|
A||---9--------9----|--7---------7---|
E||-----------------|----------------|
	Sometimes.............
	
    A                   F#m              D                  E
e||-------------------|-----------------|-----------------|----------------|
B||----------9--------|--------9--------|--------7--------|-------9--------|
G||-------9----9------|------9---9------|------7---7------|-----9---9------|
D||----7----------7---|-----------------|-----------------|----------------|
A||-------------------|---9--------9/---|---5---------5/--|--7---------7---|
E||-------------------|-----------------|-----------------|----------------|
	Oh....................
Tap to rate this tab
# A B C D E F G H I J K L M N O P Q R S T U V W X Y Z