Song name
# A B C D E F G H I J K L M N O P Q R S T U V W X Y Z

Binocular - Gone Away tab

Help us improve GuitareTab! Take a short survey!
 Binocular - Gone Away		tabbed by 2Luke
 ---------------------

nice slow song. 
the main riff is played throughout whole song except the bridge... simple.
guitar 2 in intro is optional but it makes it sound good.

enjoy playing this to your girl! (or guy)


 Intro (X2)
 -----
 
 guitar 1 (main riff)  
e|-----------------------|-----------------------|-----------------------|-----------------------|
B|----------0------------|----------0------------|----------0------------|----------0------------|
G|---------------4-------|---------------4-------|---------------4-------|---------------4-------|
D|-------4----------4----|-------4----------4----|-------4----------4----|-------4----------4----|
A|--2--------------------|-----------------------|-----------------------|-----------------------|
E|-----------------------|--0--------------------|--4--------------------|--2--------------------|

 guitar 2 (optional)
E|-----------------------|-----------------------|-----------------------|-----------------------|
B|--2/4-----2-------4----|--0---------------0h2--|--2/4-----2-------4----|--2--------------------|
G|--3/4-----3-------4----|--1---------------1h3--|--3/4-----3-------4----|--3--------------------|
D|-----------------------|-----------------------|-----------------------|-----------------------|
A|-----------------------|-----------------------|-----------------------|-----------------------|
E|-----------------------|-----------------------|-----------------------|-----------------------|

 -------
 Verse 1 (play 'main riff' on all verses and chorus - except bridge)
 -------

e|-----------------------|-----------------------|-----------------------|-----------------------|
B|----------0------------|----------0------------|----------0------------|----------0------------|
G|---------------4-------|---------------4-------|---------------4-------|---------------4-------|
D|-------4----------4----|-------4----------4----|-------4----------4----|-------4----------4----|
A|--2--------------------|-----------------------|-----------------------|-----------------------|
E|-----------------------|--0--------------------|--4--------------------|--2--------------------|
          i step outside                        and take the cold in      like a pill

then i wake up and dream it was a dream i dreamt
that old house stuck up on a hill somewhere
makes me cry out loud and wipe away the tears again

 Chorus
 ------

how do i know that you ain't gone away
how do i know that you ain't gone away
heaven's on your doorstep and you ain't gone away
they make up lies tell you things and you ain't gone away

 Verse 2
 -------

in the morning mist i call out your name
but i don't hear it echo the voice of the insane
all the memories on your window sill they keep a sweet refrain
if all that's good's an accident i'm not the one to blame

 Chorus
 ------

how do i know that you ain't gone away
how do i know that you ain't gone away
heaven's on your doorstep and you ain't gone away
and knowing all the answers won't take away the pain
now you can see the reasoning the truth of the insane
they make up lies tell you things and you ain't gone away

 Bridge
 ------

e|-----------------------|-----------------------|-----------------------|-----------------------|
B|----------2------------|----------0------------|----------2------------|----------0------------|
G|---------------4-------|---------------4-------|---------------4-------|---------------4-------|
D|-------4----------4----|-------4----------4----|-------4----------4----|-------4----------4----|
A|--0--------------------|-----------------------|--0--------------------|-----------------------|
E|-----------------------|--4--------------------|-----------------------|--4--------------------|
    star       -           struck               the letters on your mantlepiece


e|-----------------------|-----------------------|-----------------------|
B|----------2------------|----------0------------|----------0------------|
G|---------------4-------|---------------4-------|----------4------------|
D|-------4----------4----|-------4----------4----|-------4---------------|
A|--0--------------------|-----------------------|-----------------------|
E|-----------------------|--4--------------------|--2--------------------|
    read                   like                    death in venice .........on the beach

 Chorus (play main riff again)
 ------

and you ain't gone away
how do I know that you ain't gone away
heaven's on your doorstep and you ain't gone away
and knowing all the answers won't take away the pain
now you can see the reasoning the truth of the insane
they make up lies tell you things and you ain't gone away

_________________________________________________________
kid©2009™ ♪♫♪
Related for Gone Away tab