Song name
# A B C D E F G H I J K L M N O P Q R S T U V W X Y Z

Bitch Alert - Kiss Me tab

.-------------------------------------------.
| Artist        : Bitch Alert               |
| Album         : Pay For Orgasm            |
| Track         : Kiss Me                   |
|-------------------------------------------|
| Tabbed by     : Ricky Thomson             |
| Date          : Thu 17th April 2012       |
| Contact Email : punkalert@gmail.com       |
`-------------------------------------------'

Tuning: standard

\ = slide down


[intro]

    E E E F       E E E F       E E E F       E E E F
e|------------------------------------------------------|
B|------------------------------------------------------|
G|------------------------------------------------------|
D|------------\-------------\-------------\-------------|
A|------------\-------------\-------------\-------------|
E|--0-0-0-1-------0-0-0-1-------0-0-0-1-------0-0-0-1---|


[bridge]

e|---------------------------------------------------|
B|---------------------------------------------------|
G|--------------------------------------------x-x-x--|
D|--22-3-33-2---22-3-33-2---22-3-33-2---2-2-3-x-x-x--|
A|--22-3-33-2---22-3-33-2---22-3-33-2---2-2-3-x-x-x--|
E|--00-1-11-0---00-1-11-0---00-1-11-0---0-0-1-x-x-x--|


[verse]

e|-------------------------------------------------------|
B|-------------------------------------------------------|
G|-------------------------------------------------------|
D|--2-2-2-3-xx--2-2-2-3-xx--2-2-2-3-xx--2-2-2-3-3-3-3-3--|
A|--2-2-2-1-xx--2-2-2-1-xx--2-2-2-3-xx--2-2-2-3-3-3-3-3--|
E|--0-0-0-1-xx--0-0-0-1-xx--0-0-0-1-xx--0-0-0-1-1-1-1-1--|


[chorus]

e|-------------||-----------------------||
B|-------------||-----------------------||
G|-------------||-9999--777-------------||
D|--7-77--9999-||-9999--555--7-77--9999-||
A|--7-77--9999-||-7777--555--7-77--9999-||
E|--5-55--7777-||------------5-55--7777-||



Order:
 - intro
 - bridge 
 - verse [x2]
 - chorus [x2]
 - bridge
 - verse [x2]
 - chorus [x2]
 - bridge [x2]


Final chord: 
e|-----------|
B|-----------|
G|-----------|
D|--2--------|
A|--2--------|
E|--0--------|

Tap to rate this tab
# A B C D E F G H I J K L M N O P Q R S T U V W X Y Z