Song name
# A B C D E F G H I J K L M N O P Q R S T U V W X Y Z

Bitch Alert - Homophobia tab

.-------------------------------------------.
| Artist        : Bitch Alert               |
| Album         : Pay For Orgasm            |
| Track         : Homophobia                |
|-------------------------------------------|
| Tabbed by     : Ricky Thomson             |
| Date          : Thu 22nd April 2012       |
| Contact Email : punkalert@gmail.com       |
`-------------------------------------------'

Some parts of the [bridge] section have a tremelo/delay effect.
I can't be too sure if it's a second guitar played in the background, 
but it sound's good enough with one guitar, when playing along to the 
record.

Tuning: Drop D


[riff]

"Nothing anywhere..."
e||-------------------------||
B||-------------------------||
G||-------8-------8------8--|| 
D||------8-------8-----8----|| 
A||--6------6--------6------||
D||-------------------------||


[chorus]

"Watch yourself..."
e|-------||------------------------||
B|-------||------------------------||
G|--8----||------------------------||
D|--8-0--||--5-5550--440--1-1-1-0--||
A|--6-0--||--5-5550--440--1-1-1-0--||
D|----0--||--5-5550--440--1-1-1-0--||


[bridge]

"It's like so, so it's like..."
e||------------------------------------||
B||------------------------------------||
G||--8-88-8-88--9-99--8-88-8-88--7-77--||
D||--8-66-6-66--9-99--8-88-8-88--7-77--||
A||--6-66-6-66--7-77--6-66-6-66--5-55--||
D||------------------------------------||


Order:
 - riff [x8]
 - chorus [x4]
 - riff [x6]
 - chorus [x4]
 - bridge [x4] *
 - bridge [x2] 
 - chorus [x4]
 - riff [x6]
 - chorus [x4]
 - bridge [x4]
 - chorus [x4]
 - bridge [x4] *

* switch to a setting with less 
  distortion on these parts


Final chord:

e|---------|
B|---------|
G|--8------|
D|--8------|
A|--6------|
D|---------|


Enjoy :-D
Tap to rate this tab
 
# A B C D E F G H I J K L M N O P Q R S T U V W X Y Z