Song name
# A B C D E F G H I J K L M N O P Q R S T U V W X Y Z

Bitch Alert - Bikini tab

.-------------------------------------------.
| Artist        : Bitch Alert               |
| Album         : Kill Your Darlings        |
| Track         : Bikini                    |
|-------------------------------------------|
| Tabbed by     : Ricky Thomson             |
| Date          : Thu 24th April 2012       |
| Contact Email : punkalert@gmail.com       |
`-------------------------------------------'

Tuning: standard

b = bend


[riff]
(when the chorus follows this riff, let the last note ring)

e||---------------------||
B||---------------------||
G||---------------------||
D||---------------------||
A||--------3--2b--2--0--||
E||--0--0---------------||


[chorus]

e||-------------------------------------------------------------||
B||-------------------------------------------------------------||
G||-------------------------------------------------------------||
D||----5------5-------4------4-------2------2-------4------4----||
A||-------------------------------------------------------------||
E||--3---3--3---3---2---2--2---2---0---0--0---0---2---2--2---2--||


[outro]
(almost identical to the main riff)

e||---------------------||
B||---------------------||
G||---------------------||
D||---------------------||
A||--------3--2b-----0--||
E||--0--0---------------||


Order:
 - riff [x8]
 - verse *
 - riff [x8]
 - verse *
 - riff [x7]
 - chorus [x2]
 - riff [x8]
 - verse *
 - riff [x7]
 - chorus [x4]
 - outro [x8]
 - verse *

* nothing is played during the verse


Enjoy :-)
Tap to rate this tab
# A B C D E F G H I J K L M N O P Q R S T U V W X Y Z