Song name
# A B C D E F G H I J K L M N O P Q R S T U V W X Y Z

Biting Elbows - Bad Motherfucker tab

-------------------------------------------------------------------------------
                             Bad Motherufucker - Biting Elbows
-------------------------------------------------------------------------------
It's only the riff thing (the best thing of it ofcourse)
Hope you like it! Try it playing while you listening to the song!
It's really easy, and I didn't saw a real tab for it,
so here you go! :D

Tabbed by:Daniel Por
E-mail:pordaniel40@gmail.com

Tuning:EADGBE

e|------------------------------------------------------------------------------|
B|------------------------------------------------------------------------------|
G|------7--7--7--7--7----7----10-10-10-10---------------------5--5--5--5--5--5--|
D|------7--7--7--7--7----7----10-10-10-10-7--7--7--7--7---7---5--5--5--5--5--5--|
A|------5--5--5--5--5----5----8--8--8--8--7--7--7--7--7---7---3--3--3--3--3--3--|
E|----------------------------------------5--5--5--5--5---5---------------------|

It was my first tab!
Tap to rate this tab
 
# A B C D E F G H I J K L M N O P Q R S T U V W X Y Z