Song name
# A B C D E F G H I J K L M N O P Q R S T U V W X Y Z

Black Crowes - Hotel Illness tab

The Black Crowes
Song Title: Hotel Illness
TBC Original? Yes
Written By: Chris and Rich Robinson
Recording Session: Southern Harmony And Musical Companion
Record: The Southern Harmony And Musical Companion
Live Debut: 10/12/1991
Shows: 331 times played live
Notes: none at this time.

------------------------------
The above information was taken from www.crowesbase.com

Tuning: DGDGBD (Open G)

Intro:
D----------5-5--5--5--------0-0--0--------0-0-----------|
B----------5-5--5--5-0-0-1--1-1--1-0-0-1--1-1--1-0-1-0--|
G----------5-5--5--5-0-0-0----0--0-0-0-0----0--0-0-0-0--|
D--0--0----5-5--5--5-0-0-2----2--2-0-0-2----2--2-0-2-0--|
G--0--0--0-0-0--0--0-0-0-0----0--0-0-0-0----0--0-0-0-0--|
D-------------------------------------------------------|

D----------------5-----------------0-0--0--------0-0-----------|
B----------------5----------0-0-1--1-1--1-0-0-1--1-1--1-0-1-0--|
G----------------5----------0-0-0----0--0-0-0-0----0--0-0-0-0--| x2
D--0-0-0-0-0-0-0-5----5-5-5-0-0-2----2--2-0-0-2----2--2-0-2-0--|
G--0-0-0-0-0-0-0-0----0-0-0-0-0-0----0--0-0-0-0----0--0-0-0-0--|
D--------------------------------------------------------------|

Verse:
D----------------5-----------------0-0--0--------0-0-----------|
B----------------5----------0-0-1--1-1--1-0-0-1--1-1--1-0-1-0--|
G----------------5----------0-0-0----0--0-0-0-0----0--0-0-0-0--|
D--0-0-2-0-0-0-0-5----5-5-5-0-0-2----2--2-0-0-2----2--2-0-2-0--|
G--0-0-0-0-0-0-0-0----0-0-0-0-0-0----0--0-0-0-0----0--0-0-0-0--|
D--------------------------------------------------------------|

Chorus:
D---------------------5--0-----|
B-----8--8-7-8-7--7-7-5--0-----|
G--7--7--7-7-7-7--7-7-5--0--5--|
D--7--9--9-7-9-7--7-7-5--0--5--|
G--7--7--7-7-7-7--7-7-5--0--5--|
D------------------------------|

D------------------------5--0-----|
B------8-------8---------5--0-----|
G--7-7-7-7-7-7-7-7-7-7-7-5--0--5--| x2
D--7-7-9-7-7-7-9-7-7-7-7-5--0--5--|
G--7-7-7-7-7-7-7-7-7-7-7-5--0--5--|
D---------------------------------|

D----------------5--5--0-0-0--0-0-0-0-0-0-|
B------8-------8-5--5--0-0-1--1-1-1-1-0-0-|
G--7-7-7-7-7-7-7-5--5--0-0-0--0-0-0-0-0-0-|
D--7-7-9-7-7-7-9-5--5--0-0-2--2-2-2-2-0-0-|
G--7-7-7-7-7-7-7-5--5--0-0-0--0-0-0-0-0-0-|
D-----------------------------------------|

D--0--0-0-0-0-0-0--|
B--1--1-1-1-1-0-0--|
G--0--0-0-0-0-0-0--| x3
D--2--2-2-2-2-0-0--|
G--0--0-0-0-0-0-0--|
D------------------|

D--0-0-0-0-0--0--|
B--1-1-1-1-0--0--|
G--0-0-0-0-0--0--|
D--2-2-2-2-0--0--|
G--0-0-0-0-0--0--|
D----------------|

Solo Rhythm (both solos):
D--0--0-0-0-0-0-0--|
B--1--1-1-1-1-0-0--|
G--0--0-0-0-0-0-0--|
D--2--2-2-2-2-0-0--|
G--0--0-0-0-0-0-0--|
D------------------|

For the first guitar solo, there is another guitar playing slide riffs such as:
D------12--12\--|
B------12--12\--|
G--/12-----12\--|
D--/12-----12\--|
G---------------|
D---------------|

Final three measures:
D--0--0-0-0-0-0-0-0---------------------12--------|
B--1--1-1-1-1-0-1-0--3/--------------12-----------|
G--0--0-0-0-0-0-0-0--3/--12\10--------------12\0--|
D--2--2-2-2-2-0-2-0--3/--------12\10--------12\0--|
G--0--0-0-0-0-0-0-0-------------------------------|
D-------------------------------------------------|
Tap to rate this tab
# A B C D E F G H I J K L M N O P Q R S T U V W X Y Z