Song name
# A B C D E F G H I J K L M N O P Q R S T U V W X Y Z

Black Dahlia Murder - Hit The Road tab

Help us improve GuitareTab! Take a short survey!
Band- Black Dahlia Murder
Song- Hit The Road

Intro:
Rythm guitar:
  A5                                  A5
|-----------------|-----------------|-----------------|-----------------|
|-----------------|-----------------|-----------------|-----------------|
|-----------------|------rest-------|-----------------|-------rest------|
|-2-2-2-2-2-2-2-2-|-----------------|-2-2-2-2-2-2-2-2-|-----------------|
|-0-0-0-0-0-0-0-0-|-----------------|-0-0-0-0-0-0-0-0-|-----------------|
|-----------------|-----------------|-----------------|-----------------|
  1 + 2 + 3 + 4 +   1 + 2 + 3 + 4 +   1 + 2 + 3 + 4 +   1 + 2 + 3 + 4 + 

  A5                                  A5
|-----------------|-----------------|-----------------|-----------------|
|-----------------|-----------------|-----------------|-----------------|
|-----------------|------rest-------|-----------------|-------rest------|
|-2-2-2-2-2-2-2-2-|-----------------|-2-2-2-2-2-2-2-2-|-----------------|
|-0-0-0-0-0-0-0-0-|-----------------|-0-0-0-0-0-0-0-0-|-----------------|
|-----------------|-----------------|-----------------|-----------------|
  1 + 2 + 3 + 4 +   1 + 2 + 3 + 4 +   1 + 2 + 3 + 4 +   1 + 2 + 3 + 4 + 

Lead Guitar:
  A5                                  A5
|-----------------|-----------------|-----------------|-----------------|
|-----------------|-----------------|-----------------|-----------------|
|-----------------|--improvisation--|-----------------|--improvisation--|
|-2-2-2-2-2-2-2-2-|-----------------|-2-2-2-2-2-2-2-2-|-----------------|
|-0-0-0-0-0-0-0-0-|-----------------|-0-0-0-0-0-0-0-0-|-----------------|
|-----------------|-----------------|-----------------|-----------------|
  1 + 2 + 3 + 4 +   1 + 2 + 3 + 4 +   1 + 2 + 3 + 4 +   1 + 2 + 3 + 4 + 

  A5                                  A5
|-----------------|-----------------|-----------------|-----------------|
|-----------------|-----------------|-----------------|-----------------|
|-----------------|--improvisation--|-----------------|--improvisation--|
|-2-2-2-2-2-2-2-2-|-----------------|-2-2-2-2-2-2-2-2-|-----------------|
|-0-0-0-0-0-0-0-0-|-----------------|-0-0-0-0-0-0-0-0-|-----------------|
|-----------------|-----------------|-----------------|-----------------|
  1 + 2 + 3 + 4 +   1 + 2 + 3 + 4 +   1 + 2 + 3 + 4 +   1 + 2 + 3 + 4 + 

Chours:
Both Guitars:
  A5                C5      D5        A5                C5      D5
|-----------------|-----------------|-----------------|-----------------|
|-----------------|-----------------|-----------------|-----------------|
|-----------------|-----------------|-----------------|-----------------|
|-2-2-2-2-2-2-2-2-|-5-5-5-5-7-7-7-7-|-2-2-2-2-2-2-2-2-|-5-5-5-5-7-7-7-7-|
|-0-0-0-0-0-0-0-0-|-3-3-3-3-5-5-5-5-|-0-0-0-0-0-0-0-0-|-3-3-3-3-5-5-5-5-|
|-----------------|-----------------|-----------------|-----------------|
  1 + 2 + 3 + 4 +   1 + 2 + 3 + 4 +   1 + 2 + 3 + 4 +   1 + 2 + 3 + 4 + 

Verse 1:
Both guitars:
  A                 G                 A                 G                
|-----------------|-----------------|-----------------|-----------------|
|-----------------|-----------------|-----------------|-----------------|
|-----------------|-----------------|-----------------|-----------------|
|-----7-7-----7-7-|-----5-5-----5-5-|-----7-7-----7-7-|-----5-5-----5-5-|
|-----7-7-----7-7-|-----5-5-----5-5-|-----7-7-----7-7-|-----5-5-----5-5-|
|-5-5-5-5-5-5-5-5-|-3-3-3-3-3-3-3-3-|-5-5-5-5-5-5-5-5-|-3-3-3-3-3-3-3-3-|
  1 + 2 + 3 + 4 +   1 + 2 + 3 + 4 +   1 + 2 + 3 + 4 +   1 + 2 + 3 + 4 + 

  A                 G                 A                 G                
|-----------------|-----------------|-----------------|-----------------|
|-----------------|-----------------|-----------------|-----------------|
|-----------------|-----------------|-----------------|-----------------|
|-----7-7-----7-7-|-----5-5-----5-5-|-7-7-7-7-7-7-7-7-|-5-5-5-5-5-5-5-5-|
|-----7-7-----7-7-|-----5-5-----5-5-|-7-7-7-7-7-7-7-7-|-5-5-5-5-5-5-5-5-|
|-5-5-5-5-5-5-5-5-|-3-3-3-3-3-3-3-3-|-5-5-5-5-5-5-5-5-|-3-3-3-3-3-3-3-3-|
  1 + 2 + 3 + 4 +   1 + 2 + 3 + 4 +   1 + 2 + 3 + 4 +   1 + 2 + 3 + 4 + 


Link:
Rythm guitar:
  A5                                  A5
|-----------------|-----------------|-----------------|-----------------|
|-----------------|-----------------|-----------------|-----------------|
|-----------------|------rest-------|-----------------|-------rest------|
|-2-2-2-2-2-2-2-2-|-----------------|-2-2-2-2-2-2-2-2-|-----------------|
|-0-0-0-0-0-0-0-0-|-----------------|-0-0-0-0-0-0-0-0-|-----------------|
|-----------------|-----------------|-----------------|-----------------|
  1 + 2 + 3 + 4 +   1 + 2 + 3 + 4 +   1 + 2 + 3 + 4 +   1 + 2 + 3 + 4 + 

  A5                                  A5
|-----------------|-----------------|-----------------|-----------------|
|-----------------|-----------------|-----------------|-----------------|
|-----------------|------rest-------|-----------------|-------rest------|
|-2-2-2-2-2-2-2-2-|-----------------|-2-2-2-2-2-2-2-2-|-----------------|
|-0-0-0-0-0-0-0-0-|-----------------|-0-0-0-0-0-0-0-0-|-----------------|
|-----------------|-----------------|-----------------|-----------------|
  1 + 2 + 3 + 4 +   1 + 2 + 3 + 4 +   1 + 2 + 3 + 4 +   1 + 2 + 3 + 4 + 

Lead Guitar:
  A5                                  A5
|-----------------|-----------------|-----------------|-----------------|
|-----------------|-----------------|-----------------|-----------------|
|-----------------|--improvisation--|-----------------|--improvisation--|
|-2-2-2-2-2-2-2-2-|-----------------|-2-2-2-2-2-2-2-2-|-----------------|
|-0-0-0-0-0-0-0-0-|-----------------|-0-0-0-0-0-0-0-0-|-----------------|
|-----------------|-----------------|-----------------|-----------------|
  1 + 2 + 3 + 4 +   1 + 2 + 3 + 4 +   1 + 2 + 3 + 4 +   1 + 2 + 3 + 4 + 

  A5                                  A5
|-----------------|-----------------|-----------------|-----------------|
|-----------------|-----------------|-----------------|-----------------|
|-----------------|--improvisation--|-----------------|--improvisation--|
|-2-2-2-2-2-2-2-2-|-----------------|-2-2-2-2-2-2-2-2-|-----------------|
|-0-0-0-0-0-0-0-0-|-----------------|-0-0-0-0-0-0-0-0-|-----------------|
|-----------------|-----------------|-----------------|-----------------|
  1 + 2 + 3 + 4 +   1 + 2 + 3 + 4 +   1 + 2 + 3 + 4 +   1 + 2 + 3 + 4 +

Chours:
Both Guitars:
  A5                C5      D5        A5                C5      D5
|-----------------|-----------------|-----------------|-----------------|
|-----------------|-----------------|-----------------|-----------------|
|-----------------|-----------------|-----------------|-----------------|
|-2-2-2-2-2-2-2-2-|-5-5-5-5-7-7-7-7-|-2-2-2-2-2-2-2-2-|-5-5-5-5-7-7-7-7-|
|-0-0-0-0-0-0-0-0-|-3-3-3-3-5-5-5-5-|-0-0-0-0-0-0-0-0-|-3-3-3-3-5-5-5-5-|
|-----------------|-----------------|-----------------|-----------------|
  1 + 2 + 3 + 4 +   1 + 2 + 3 + 4 +   1 + 2 + 3 + 4 +   1 + 2 + 3 + 4 +

  A5                C5      D5        A5                C5      D5
|-----------------|-----------------|-----------------|-----------------|
|-----------------|-----------------|-----------------|-----------------|
|-----------------|-----------------|-----------------|-----------------|
|-2-2-2-2-2-2-2-2-|-5-5-5-5-7-7-7-7-|-2-2-2-2-2-2-2-2-|-5-5-5-5-7-7-7-7-|
|-0-0-0-0-0-0-0-0-|-3-3-3-3-5-5-5-5-|-0-0-0-0-0-0-0-0-|-3-3-3-3-5-5-5-5-|
|-----------------|-----------------|-----------------|-----------------|
  1 + 2 + 3 + 4 +   1 + 2 + 3 + 4 +   1 + 2 + 3 + 4 +   1 + 2 + 3 + 4 +

Verse 2:
Both guitars:
  A                 G                 A                 G                
|-----------------|-----------------|-----------------|-----------------|
|-----------------|-----------------|-----------------|-----------------|
|-----------------|-----------------|-----------------|-----------------|
|-----7-7-----7-7-|-----5-5-----5-5-|-----7-7-----7-7-|-----5-5-----5-5-|
|-----7-7-----7-7-|-----5-5-----5-5-|-----7-7-----7-7-|-----5-5-----5-5-|
|-5-5-5-5-5-5-5-5-|-3-3-3-3-3-3-3-3-|-5-5-5-5-5-5-5-5-|-3-3-3-3-3-3-3-3-|
  1 + 2 + 3 + 4 +   1 + 2 + 3 + 4 +   1 + 2 + 3 + 4 +   1 + 2 + 3 + 4 + 

  A                 G                 A                 G                
|-----------------|-----------------|-----------------|-----------------|
|-----------------|-----------------|-----------------|-----------------|
|-----------------|-----------------|-----------------|-----------------|
|-----7-7-----7-7-|-----5-5-----5-5-|-7-7-7-7-7-7-7-7-|-5-5-5-5-5-5-5-5-|
|-----7-7-----7-7-|-----5-5-----5-5-|-7-7-7-7-7-7-7-7-|-5-5-5-5-5-5-5-5-|
|-5-5-5-5-5-5-5-5-|-3-3-3-3-3-3-3-3-|-5-5-5-5-5-5-5-5-|-3-3-3-3-3-3-3-3-|
  1 + 2 + 3 + 4 +   1 + 2 + 3 + 4 +   1 + 2 + 3 + 4 +   1 + 2 + 3 + 4 +

Link:
Rythm guitar:
  A5                                  A5
|-----------------|-----------------|-----------------|-----------------|
|-----------------|-----------------|-----------------|-----------------|
|-----------------|------rest-------|-----------------|-------rest------|
|-2-2-2-2-2-2-2-2-|-----------------|-2-2-2-2-2-2-2-2-|-----------------|
|-0-0-0-0-0-0-0-0-|-----------------|-0-0-0-0-0-0-0-0-|-----------------|
|-----------------|-----------------|-----------------|-----------------|
  1 + 2 + 3 + 4 +   1 + 2 + 3 + 4 +   1 + 2 + 3 + 4 +   1 + 2 + 3 + 4 + 

  A5                                  A5
|-----------------|-----------------|-----------------|-----------------|
|-----------------|-----------------|-----------------|-----------------|
|-----------------|------rest-------|-----------------|-------rest------|
|-2-2-2-2-2-2-2-2-|-----------------|-2-2-2-2-2-2-2-2-|-----------------|
|-0-0-0-0-0-0-0-0-|-----------------|-0-0-0-0-0-0-0-0-|-----------------|
|-----------------|-----------------|-----------------|-----------------|
  1 + 2 + 3 + 4 +   1 + 2 + 3 + 4 +   1 + 2 + 3 + 4 +   1 + 2 + 3 + 4 + 

Lead Guitar:
  A5                                  A5
|-----------------|-----------------|-----------------|-----------------|
|-----------------|-----------------|-----------------|-----------------|
|-----------------|--improvisation--|-----------------|--improvisation--|
|-2-2-2-2-2-2-2-2-|-----------------|-2-2-2-2-2-2-2-2-|-----------------|
|-0-0-0-0-0-0-0-0-|-----------------|-0-0-0-0-0-0-0-0-|-----------------|
|-----------------|-----------------|-----------------|-----------------|
  1 + 2 + 3 + 4 +   1 + 2 + 3 + 4 +   1 + 2 + 3 + 4 +   1 + 2 + 3 + 4 + 

  A5                                  A5
|-----------------|-----------------|-----------------|-----------------|
|-----------------|-----------------|-----------------|-----------------|
|-----------------|--improvisation--|-----------------|--improvisation--|
|-2-2-2-2-2-2-2-2-|-----------------|-2-2-2-2-2-2-2-2-|-----------------|
|-0-0-0-0-0-0-0-0-|-----------------|-0-0-0-0-0-0-0-0-|-----------------|
|-----------------|-----------------|-----------------|-----------------|
  1 + 2 + 3 + 4 +   1 + 2 + 3 + 4 +   1 + 2 + 3 + 4 +   1 + 2 + 3 + 4 +

Chours:
Both Guitars:
  A5                C5      D5        A5                C5      D5
|-----------------|-----------------|-----------------|-----------------|
|-----------------|-----------------|-----------------|-----------------|
|-----------------|-----------------|-----------------|-----------------|
|-2-2-2-2-2-2-2-2-|-5-5-5-5-7-7-7-7-|-2-2-2-2-2-2-2-2-|-5-5-5-5-7-7-7-7-|
|-0-0-0-0-0-0-0-0-|-3-3-3-3-5-5-5-5-|-0-0-0-0-0-0-0-0-|-3-3-3-3-5-5-5-5-|
|-----------------|-----------------|-----------------|-----------------|
  1 + 2 + 3 + 4 +   1 + 2 + 3 + 4 +   1 + 2 + 3 + 4 +   1 + 2 + 3 + 4 +

  A5                C5      D5        A5                C5      D5
|-----------------|-----------------|-----------------|-----------------|
|-----------------|-----------------|-----------------|-----------------|
|-----------------|-----------------|-----------------|-----------------|
|-2-2-2-2-2-2-2-2-|-5-5-5-5-7-7-7-7-|-2-2-2-2-2-2-2-2-|-5-5-5-5-7-7-7-7-|
|-0-0-0-0-0-0-0-0-|-3-3-3-3-5-5-5-5-|-0-0-0-0-0-0-0-0-|-3-3-3-3-5-5-5-5-|
|-----------------|-----------------|-----------------|-----------------|
  1 + 2 + 3 + 4 +   1 + 2 + 3 + 4 +   1 + 2 + 3 + 4 +   1 + 2 + 3 + 4 +

Guitar solo (chours over top)
  A5                C5      D5        A5                C5      D5
|-----------------|-----------------|-----------------|-----------------|
|-----------------|-----------------|-----------------|-----------------|
|-----------------|-----------------|-----------------|-----------------|
|-2-2-2-2-2-2-2-2-|-5-5-5-5-7-7-7-7-|-2-2-2-2-2-2-2-2-|-5-5-5-5-7-7-7-7-|
|-0-0-0-0-0-0-0-0-|-3-3-3-3-5-5-5-5-|-0-0-0-0-0-0-0-0-|-3-3-3-3-5-5-5-5-|
|-----------------|-----------------|-----------------|-----------------|
  1 + 2 + 3 + 4 +   1 + 2 + 3 + 4 +   1 + 2 + 3 + 4 +   1 + 2 + 3 + 4 +

  A5                C5      D5        A5                C5      D5
|-----------------|-----------------|-----------------|-----------------|
|-----------------|-----------------|-----------------|-----------------|
|-----------------|-----------------|-----------------|-----------------|
|-2-2-2-2-2-2-2-2-|-5-5-5-5-7-7-7-7-|-2-2-2-2-2-2-2-2-|-5-5-5-5-7-7-7-7-|
|-0-0-0-0-0-0-0-0-|-3-3-3-3-5-5-5-5-|-0-0-0-0-0-0-0-0-|-3-3-3-3-5-5-5-5-|
|-----------------|-----------------|-----------------|-----------------|
  1 + 2 + 3 + 4 +   1 + 2 + 3 + 4 +   1 + 2 + 3 + 4 +   1 + 2 + 3 + 4 +

  A5                C5      D5        A5                C5      D5
|-----------------|-----------------|-----------------|-----------------|
|-----------------|-----------------|-----------------|-----------------|
|-----------------|-----------------|-----------------|-----------------|
|-2-2-2-2-2-2-2-2-|-5-5-5-5-7-7-7-7-|-2-2-2-2-2-2-2-2-|-5-5-5-5-7-7-7-7-|
|-0-0-0-0-0-0-0-0-|-3-3-3-3-5-5-5-5-|-0-0-0-0-0-0-0-0-|-3-3-3-3-5-5-5-5-|
|-----------------|-----------------|-----------------|-----------------|
  1 + 2 + 3 + 4 +   1 + 2 + 3 + 4 +   1 + 2 + 3 + 4 +   1 + 2 + 3 + 4 +

  A5                C5      D5        A5                C5      D5
|-----------------|-----------------|-----------------|-----------------|
|-----------------|-----------------|-----------------|-----------------|
|-----------------|-----------------|-----------------|-----------------|
|-2-2-2-2-2-2-2-2-|-5-5-5-5-7-7-7-7-|-2-2-2-2-2-2-2-2-|-5-5-5-5-7-7-7-7-|
|-0-0-0-0-0-0-0-0-|-3-3-3-3-5-5-5-5-|-0-0-0-0-0-0-0-0-|-3-3-3-3-5-5-5-5-|
|-----------------|-----------------|-----------------|-----------------|
  1 + 2 + 3 + 4 +   1 + 2 + 3 + 4 +   1 + 2 + 3 + 4 +   1 + 2 + 3 + 4 +

Chours:
Both Guitars:
  A5                C5      D5        A5                C5      D5
|-----------------|-----------------|-----------------|-----------------|
|-----------------|-----------------|-----------------|-----------------|
|-----------------|-----------------|-----------------|-----------------|
|-2-2-2-2-2-2-2-2-|-5-5-5-5-7-7-7-7-|-2-2-2-2-2-2-2-2-|-5-5-5-5-7-7-7-7-|
|-0-0-0-0-0-0-0-0-|-3-3-3-3-5-5-5-5-|-0-0-0-0-0-0-0-0-|-3-3-3-3-5-5-5-5-|
|-----------------|-----------------|-----------------|-----------------|
  1 + 2 + 3 + 4 +   1 + 2 + 3 + 4 +   1 + 2 + 3 + 4 +   1 + 2 + 3 + 4 +

  A5                C5      D5        A5                C5      D5
|-----------------|-----------------|-----------------|-----------------|
|-----------------|-----------------|-----------------|-----------------|
|-----------------|-----------------|-----------------|-----------------|
|-2-2-2-2-2-2-2-2-|-5-5-5-5-7-7-7-7-|-2-2-2-2-2-2-2-2-|-5-5-5-5-7-7-7-7-|
|-0-0-0-0-0-0-0-0-|-3-3-3-3-5-5-5-5-|-0-0-0-0-0-0-0-0-|-3-3-3-3-5-5-5-5-|
|-----------------|-----------------|-----------------|-----------------|
  1 + 2 + 3 + 4 +   1 + 2 + 3 + 4 +   1 + 2 + 3 + 4 +   1 + 2 + 3 + 4 +

Chours:
Both Guitars:
  A5                C5      D5        A5                C5      D5
|-----------------|-----------------|-----------------|-----------------|
|-----------------|-----------------|-----------------|-----------------|
|-----------------|-----------------|-----------------|-----------------|
|-2-2-2-2-2-2-2-2-|-5-5-5-5-7-7-7-7-|-2-2-2-2-2-2-2-2-|-5-5-5-5-7-7-7-7-|
|-0-0-0-0-0-0-0-0-|-3-3-3-3-5-5-5-5-|-0-0-0-0-0-0-0-0-|-3-3-3-3-5-5-5-5-|
|-----------------|-----------------|-----------------|-----------------|
  1 + 2 + 3 + 4 +   1 + 2 + 3 + 4 +   1 + 2 + 3 + 4 +   1 + 2 + 3 + 4 +

  A5                C5      D5        A5                C5      D5
|-----------------|-----------------|-----------------|-----------------|
|-----------------|-----------------|-----------------|-----------------|
|-----------------|-----------------|-----------------|-----------------|
|-2-2-2-2-2-2-2-2-|-5-5-5-5-7-7-7-7-|-2-2-2-2-2-2-2-2-|-5-5-5-5-7-------|
|-0-0-0-0-0-0-0-0-|-3-3-3-3-5-5-5-5-|-0-0-0-0-0-0-0-0-|-3-3-3-3-5-------|
|-----------------|-----------------|-----------------|-----------------|
  1 + 2 + 3 + 4 +   1 + 2 + 3 + 4 +   1 + 2 + 3 + 4 +   1 + 2 + 3 + 4 +
Related for Hit The Road tab