Song name
# A B C D E F G H I J K L M N O P Q R S T U V W X Y Z

Black Dahlia Murder - Funeral Thirst tab

                                 FUNERAL THIRST
                            The Black Dahlia Murder
                       (From The 2003 Album Unhallowed)


Transcribed by Jonathan Casper (confinedforever)

Gtr 1 - Tuning (C F Bb Eb G C)

Legend: . - palm mute
	x - stacatto
	+ - tremolo picking

I am positive that this is the correct way to play this song and it
is deff. not in drop c


Intro Riff 2x   Gtr 1                   Gtr 2
|----------------------------------|------------------|
|----------------------------------|------------------|
|----------------------------------|------------------|
|----------------------------------|------------------|
|-7-7-7-3-3-3h6p0--7-7-7-3-3-3h6p0-|-10-10-10-7-7-797-|
|--0-0---0-0------0-0---0-0--------|---0-0---0-0------|
   . .   . .      . .   . .            . .   . .

Riff 1 2x       Gtr 1                   Gtr 2  
|----------------------------|-------------------------|
|----------------------------|-------------------------|
|----------------------------|-------------------------|
|----------------------------|-5-5-9-7-7-7-4-4-9-5-5-7-|
|-7-7-10--9-9-9-6-6-10-7-7-9-|-------------------------|
|--0-0---0-0---0-0----0-0----|--0-0---0-0---0-0---0-0--|
   . .   . .   . .    . .       . .   . .   . .   . .

Chorus (all octave chords at tremolo picked)
|---------------------------------------------|
|---------------------------------------------|
|--(GUITAR 1)-9--5-8--5-8-11-9--5-8--5--------|
|-------------x--x-x--x-x-x--x--x-x--x--22-22-|
|--(GUITAR 2)-7--3-6--3-6-9--7--3-6--3--22-22-|
|---------------------------------------00-00-|
			                .. ..

|----------------------------------------------|
|----------------------------------------------|
|--(GUITAR 1)-9--5-8--5-8-11-7--5-8--5---------|
|-------------x--x-x--x-x-x--x--x-x--x---------|
|--(GUITAR 2)-7--3-6--3-6-9--9--3-6--3--3p1----|
|------------------------------------------5p3-|

	Repeat
Riff 1

Chorus w/ Riff 2 End
|--------------------------|
|--------------------------|
|--------------------------|
|---10101010-9-9-9-97777(4)|GUITAR 1
|---12121212101010109999-6-|GUITAR 2
|--------------------------|

Riff 2
|---------------------------------------------------------|
|---------------------------------------------------------|
|---------------------------------------------------------|
|-222222---------------222222--------222222---------------|
|-222222-10p9p7-7h9h10-222222----7---222222-10p9p7-7h9h10-|
|-000000---------------000000-875-87-000000---------------|
  ......               ...... ... .. ......

Riff 2 End
|--------------------------|
|--------------------------|
|--------------------------|
|---10101010-9-9-9-97777(4)|GUITAR 1
|---12121212101010109999-6-|GUITAR 2
|--------------------------|


Riff 3 (Two guitars playing top parts)
|------------------------------------------------------------|
|------------------------------------------------------------|
|------ph--------ph---------------------ph--------ph---------|
|-----757-------857--------------------757-------857-2--7-5--|GUITAR 1
|-----878------1078--------------------878------1078-4--8-7--|GUITAR 2
|--888---101010----0000000000000000-888---101010-------------|
   ...    . . .    ................ ...    . . .

Riff 4
|--------------------------------------------|
|--------------------------------------------|
|--------------------------------------------|
|-2-222-2-222-3-6-6-3-2--2-222-2-222---------|
|-2-222-2-222-3/6-6\3-2--2-222-2-222-7-7p6-3-|
|-0-000-0-000-1/4-4\1-0--0-000-0-000--0------|
    ...   ...              ...   ...  .

Under solo

 Rythym 1
|------------------|
|------------------|
|------------------|
|------------------|
|------------------|
|-8888555500000000-|x4
  ................

 Rythym 2
|-----------------------------------------|
|-----------------------------------------|
|---------------------------------------7-|
|-5--7---------------------------9--7-----|
|-3--5----------------10------------------|
|-----00000000000000008-5/7-7-000-00-00---|x3
      ................        ... .. ..

|-----------------------------|
|-----------------------------|
|-----------------------------|
|-5--7------------------------|
|-3--5----------------10------|
|-----00000000000000008-5/7-7-|x1
      ................


Solo (Rythym 1)
|----------------------------------------------------------------------|
|-15fb-r13h15p1312----------11h12p11------11h12p11--15-13-12-13-12---12|
|-----------------12-----12---------12--12--------12---------------14--|
|-------------------14-14-------------14-------------------------------|
|----------------------------------------------------------------------|
|----------------------------------------------------------------------|

|-----------------------------------------------------------------------|
|-----------------------------------------------------------------------|
|16\14-1414/16-1616\12-1212/14-1414\12-11-12p11--11p9--1412111211-------|
|----------------------------------------------14----12--------1412-1214|
|-----------------------------------------------------------------------|
|-----------------------------------------------------------------------|

 (Rythym 2)
|----1212--15141214121517|
|17fb--------------------|
|------------------------|
|------------------------|
|------------------------|
|------------------------|

|17fb-151715-14h15p14------------22-----22-----22-----22|
|--------------------17-1517-19h20--19h20--19h20--19h20-|
|-------------------------------------------------------|
|-------------------------------------------------------|
|-------------------------------------------------------|
|-------------------------------------------------------|

|2220192019171917151715141514121412--12----------------------------|
|----------------------------------15--15131513121312--12----------|
|----------------------------------------------------14--1412141211|
|------------------------------------------------------------------|
|------------------------------------------------------------------|
|------------------------------------------------------------------|

(Tapping with trills after)
  T          T          T          T
|1512141214-1512141214-1712151215-1712151215|
|-------------------------------------------|
|-------------------------------------------|
|-------------------------------------------|
|-------------------------------------------|
|-------------------------------------------|
   T      T      T      T
|151214-171215-151214-171514-15141214121415-1412|
|-----------------------------------------------|
|-----------------------------------------------|
|-----------------------------------------------|
|-----------------------------------------------|
|-----------------------------------------------|

|14\12-1212/14-1414/15-1515\14-1414/15-1515/17-1717\15-1515/17|
|-------------------------------------------------------------|
|-------------------------------------------------------------|
|-------------------------------------------------------------|
|-------------------------------------------------------------|
|-------------------------------------------------------------|

|1717/19-1919\17-1717\15-1515\14-1414\12-|
|----------------------------------------|
|----------------------------------------|
|----------------------------------------|
|----------------------------------------|
|----------------------------------------|

Riff 5a Gtr 1 & 2
(Gtr 1 does tremolo picking, Gtr 2 does power chords)
|----------------------------------|
|----------------------------------|
|----------------------------------|
|-2--------2---7692------------574-|
|-2--------2---7692------------574-|
|-00000000000005870000000000000352-|x2
  .        .   .. .            ..

Riff 5b after that (both guitars)
|----------------------------------|
|----------------------------------|
|----------------------------------|
|--------------769------------574--|
|--------------769------------574--|
|--000000000000587000000000000352--|x4
               ..            ..

Riff 3 twice ending with
|---------------------|
|---------------------|
|---------------------|
|--222-555-777-555-2--|
|--222-555-777-555-2--|
|--000-333-555-333-0--|
   ... ... ... ... .

Pause
Riff 2
Riff 3
Riff 4 let ring on end

Outro
|-----------|
|-----------|
|-----------|
|-1097--2-2-|
|-1097--2-2-|
|-8-75--0-0-|
  . ..
Tap to rate this tab
 
# A B C D E F G H I J K L M N O P Q R S T U V W X Y Z