Song name
# A B C D E F G H I J K L M N O P Q R S T U V W X Y Z

Black Dahlia Murder - I Will Return tab

"I will Return" - The Black Dahlia Murder
Deflorate

tabbed by: Josh... secondeathsingerazrail2@yahoo.com

still working on the rest of the song ill have it up soon...stay tuned
any questions, comments or corrections shoot me an email...ENJOY

tuning: C#,F,A#,D#,G,C

                               INTRO:


3/4 (123, 123, 123, 123 etc...)

Gt.1 (all eighth notes)
|-------------------------------------------------------------------------|
|-------------------------------------------------------------------------|
|----------14-------15-------14----------------14-------15-------14-------|
|-------17----17-------17-------17----------17----17-------14-------17----|
|----17----------17-------17-------17----17----------17-------14-------17-|
|-15----------------------------------15----------------------------------|


|-------------------------------------------------------------------------|
|-------------------------------------------------------------------------|
|----------10-------11-------10----------------17-------20-------19-------|
|-------13----13-------13-------13----------17----17-------17-------17----|
|----13----------13-------13-------13----17----------17-------17-------17-|
|-11----------------------------------14----------------------------------|

|-------------------------------------------------------------------------|
|-------------------------------------------------------------------------|
|----------14-------15-------14----------------14-------15-------14-------|
|-------17----17-------17-------17----------17----17-------14-------17----|
|----17----------17-------17-------17----17----------17-------14-------17-|
|-15----------------------------------15----------------------------------|

|-------------------------------------------------------------------------|
|-------------------------------------------------------------------------|
|----------10-------11-------10----------------17-------15----------------|
|-------13----13-------13-------13----------17----17-------17----16-------|
|----13----------13-------13-------13----17----------17-------17----17----|
|-11----------------------------------14-------------------------------14-|

....the rest of the song is on its way!

tabbed by: Josh... secondeathsingerazrail2@yahoo.com
Tap to rate this tab
 
# A B C D E F G H I J K L M N O P Q R S T U V W X Y Z