Song name
# A B C D E F G H I J K L M N O P Q R S T U V W X Y Z

Black Flag - Damaged tab

From:          "CT Head"  

HERES THE TAB FOR DAMAGED (BLACK FLAG)


E------------|
B------------|
G---(7--5-)--|
D-7--------7-|   (MAIN PART)
A-7--------6-|
E-5--------5-|


E----------------------------------|
B----------------------------------|
G----------------------------------|
D--10---10-------------------------|   (CHORUSY BIT)
A--10---10----11---11-----11----11-|
E---8--xx8-----9--xx9---xx10--xx10-|


NOTATION LEGEND: x =Deadened note ()==Natural harmonics

FROM: CHRIS HEAD (THE INFAMOUS WITCHDOCTOR)
Tap to rate this tab
# A B C D E F G H I J K L M N O P Q R S T U V W X Y Z