Song name
# A B C D E F G H I J K L M N O P Q R S T U V W X Y Z

Black Flag - Obliteration tab

--------------------------------------------------------------------------------|
                             Obliteration - Black Flag - Slip It In - 1984------|
--------------------------------------------------------------------------------|
Tabbed by: MattTheArsonist
E-mail: mattsaari@live.com

Tuning: Standard (EADGBe)

Intro
e |---------------------------------|--------------------------|
B |---------------------------------|--------------------------|
G |---------------------------------|--------------------------|
D |--5-5--6-6-6--7-7-7-10-10-10--9--|--6-6-6/8-6~--6-6-6/8-6~--|
A |--5-5--6-6-6--7-7-7-10-10-10--9--|--7-7-7/9-7~--7-7-7/9-7~--|
E |--3-3--4-4-4--5-5-5--8--8--8--7--|--------------------------|

e |-------|
B |-------|
G |-------|
D |--4~---|
A |--5~---|
E |-------|


Verse
e |--------------------------------------------------------|
B |--------------------------------------------------------|
G |--------------------------------------------------------|
D |----------------------------------------6-6-6/8-6--4~---|
A |----2-3----2-3----2-3----2-3----2-3-----7-7-7/9-7--5~---|
E |--1------1------1------1------1------1------------------|

e |--------------------------------------------------------|
B |--------------------------------------------------------|
G |--------------------------------------------------------|
D |----------------------------------------6-6-6/8-6--2~---|
A |----2-3----2-3----2-3----2-3----2-3-----7-7-7/9-7--3~---|
E |--1------1------1------1------1------1------------------|


Bridge
e |-----------------------------------------------------------|
B |-----------------------------------------------------------|
G |-----------------------------------------------------------|
D |-----------------------------------------------------------|
A |----2-3----2-3----2-3----2-3----3-4----3-4----3-4----3-4---|
E |--1------1------1------1------2------2------2------2-------|

e |----------------------------------------------------|
B |----------------------------------------------------|
G |----------------------------------------------------|
D |------------------------------4-4----3---5-5----4---|
A |----4-5----4-5----4-5----4-5--4-4--2-----5-5--3-----|
E |--3------3------3------3------2-2--------3-3--------|





Those are all the parts of the song - I'll leave the structure to you. It's a long song 
and structured bizarrely. There are two solos that are fairly short, but entirely 
improvised - I'll leave those for you to figure out. This is the main song, though. Enjoy.
Tap to rate this tab
 
# A B C D E F G H I J K L M N O P Q R S T U V W X Y Z