Song name
# A B C D E F G H I J K L M N O P Q R S T U V W X Y Z

Black Flag - Six Pack tab

-------------------------------------------------------------------------------
			     Six Pack-Black Flag
-------------------------------------------------------------------------------
Tabbed by:lp345
Email:sean_pinkfloyd@yahoo.co.uk

Tuning:Standard
Intro Riff
e|---------------------------------------------------------------------------|
B|---------------------------------------------------------------------------|
G|----------------------------------------11-11-------------11-11------------|
D|--5-x-x-x-x-x-x--8-x-x-x-x-x-x-12-x-x-x-11-11-12-12-x-x-x-11-11-12---------|
A|--5-x-x-x-x-x-x--8-x-x-x-x-x-x-12-x-x-x--9--9-12-12-x-x-x--9--9-12---------|
E|--3-x-x-x-x-x-x--6-x-x-x-x-x-x-10-x-x-x-------10-10-x-x-x-------10---------|
Verse
e|---------------------------------------------------------------------------|
B|---------------------------------------------------------------------------|
G|---------------------------------------------------------------------------|
D|--9-9-9-9-9-6-4---9-9-9-9-9-7-7-7-7-7-7-7-7--------------------------------|
A|--9-9-9-9-9-6-4---9-9-9-9-9-7-7-7-7-7-7-7-7--------------------------------|
E|--7-7-7-7-7-4-2---7-7-7-7-7-5-5-5-5-5-5-5-5--------------------------------|
Chorus
e|---------------------------------------------------------------------------|
B|---------------------------------------------------------------------------|
G|---------------------------------------------------------------------------|
D|--5-5-5-5-8-8-8-8-12-12-12-12----------------------------------------------|
A|--5-5-5-5-8-8-8-8-12-12-12-12----------------------------------------------|
E|--3-3-3-3-6-6-6-6-10-10-10-10----------------------------------------------|

Please email me about any  mistakes you may find
Enjoy the Tab!

| /  slide up
| \  slide down
| h  hammer-on
| p  pull-off
| ~  vibrato
| +  harmonic
| x  Mute note
Tap to rate this tab
# A B C D E F G H I J K L M N O P Q R S T U V W X Y Z