Song name
# A B C D E F G H I J K L M N O P Q R S T U V W X Y Z

Black Flag - Depression tab


Use Whammy Bar for the beginning in e.
e]------------------------------------------|
b]------------------------------------------|
g]------1-----------------------------------|
d]------2-----------------------------------|
a]------2-----------------------------------|
e]------0-----------------------------------|

e]--------------------------------------------------------------------|
b]--------------------------------------------------------------------|
g]----------------------------------55555555--77777777----------------|
d]------7777----10-10-12-12-10-10-7-55555555--77777777----------------|
a]------7777----10-10-12-12-10-10-7-33333333--55555555----------------|
e]------5555-----8-8--10-10--8-8--5-----------------------------------|    Play that 4X

"Depressions got a hold of me"

e]--------------------------------------------------------------------|
b]--------------------------------------------------------------------|
g]----------------------55555555-77777777-----------------------------|
d]---55555555--77777777-55555555-77777777-----------------------------|
a]---55555555--77777777-33333333-55555555-----------------------------|
e]---33333333--55555555-----------------------------------------------|
play 2X

e]--------------------------------------------------------------------|
b]--------------------------------------------------------------------|
g]--------------------------------------------------------------------|
d]--77777777--33333333--5555555555555555------------------------------|
a]--77777777--33333333--5555555555555555------------------------------|
e]--55555555--11111111--3333333333333333------------------------------|

Repeat the whole thing twice i guess. i dont have  the solo down yet jst look and i 
eventually post it.
Tap to rate this tab
 
# A B C D E F G H I J K L M N O P Q R S T U V W X Y Z