Guitaretab - guitar tabs
Song name
# A B C D E F G H I J K L M N O P Q R S T U V W X Y Z

Black Keys - The Flame tab

The black keys - The flame(intro)
[ Tab from: http://www.guitaretab.com/b/black-keys/173436.html ]
Riff:
|-----------------------------------------------------|
|-----------------------------------------------------|
|------------5---5--- (7)-(5)-------------------------|
|---5---5/7------------------(7)----5-7---7-------5---|
|-7-------------------------------7-----------5/7-----|
|-----------------------------------------------------|
Riff first variation:
|---------------------------------------------------------|
|---------------------------------------------------------|
|-------------5--5(7)(7)-(5)-----------------------------|
|-(5)---5-7---------------------(7)(5)---5-7--7-------5---|
|--------------------------------------7----------7/5-----|
|---------------------------------------------------------|
Riff second variation:
|-----------------------------------------------------|
|-------------------(8)^------------------------------|
|-------------5-5---------(5)-------------------------|
|-(5)---5-7------------------(7)----5-7-----------5---|
|--------------------------------7-----------7/5------|
|-----------------------------------------------------|

Es mi primer tab publicado lo hice sin tener una guitarra al lado, disfruten.
inciensosativo@ hotmail.com
Related for The Flame tab