Song name
# A B C D E F G H I J K L M N O P Q R S T U V W X Y Z

Black Keys - Shes Long Gone tab

"She's Long Gone" - The Black Keys

Tabbed by: Meg


| = not a standard bar line; just used to separate music
v = vibrato or held note
h = hammer on
p = pull off
/ = slide
b = bend string up to indicated pitch/fret
r = release bend to indicated string/fret



Intro (Guitar 1) :
e|----------------------0--|
B|---------------------0---|
G|-------------------------|
D|----2-2------0-----------|
A|--------0h2----2---------|
E|--0--------------3-0-----|

e|----------------------0---|
B|---------------------0----|
G|--------------------------|
D|----2-2------0------------|
A|--------0h2----2----------|
E|--0---------------3v------|

e|-----------------------------|
B|-----------------------------|
G|-----------------------------|
D|-----2-2------0-----------2--|
A|---------0h2----2-------2----|
E|--0---------------3-0-0------|

e|---------------------------------|
B|---------------------------------|
G|------------------2b(3)p0--------|
D|-----2-2------0-----------2------|
A|---------0h2----2----------------|
E|--0------------------------------|



Verse (Guitar 1) : [Repeat 6 times]
e|-------------------------|
B|-------------------------|
G|-------------------------|
D|----2-2------0-----------|
A|--------0h2----2---------|
E|--0--------------3-0-----|

e|--------------------------|
B|--------------------------|
G|--------------------------|
D|----2-2------0------------|
A|--------0h2----2----------|
E|------------------3v------|



Verse #1 (Guitar 2) :
e|---------------------------|
B|---------------------------|
G|---------------------------|
D|--14-14-------14p12--------|
A|--------12h14--------------|
E|--------------------15b----|

e|-------------------------------|
B|-------------------------------|
G|-------------------------------|
D|--14-14-----------12h14-12h14--|
A|--------12h14-12b--------------|
E|-------------------------------|

e|-------------------------------|
B|-------------------------------|
G|-------------------------------|
D|--14-14-------14p12------------|
A|--------12h14-----------14p12--|
E|--------------------15b--------|

e|------------15h17p15p12------|
B|---------12-------------15---|
G|-----------------------------|
D|--14-14v---------------------|
A|-----------------------------|
E|-----------------------------|

e|----------------------------|
B|--14b(17)r15----14b(17)r15--|
G|----------------------------|
D|----------------------------|
A|----------------------------|
E|----------------------------|


Chorus (Guitar 1) : [Repeat 4 times]
e|---------------------------------------|
B|---------------------------------------|
G|---------------------------------------|
D|---------------------------------------|
A|---------------------------------------|
E|--0-0-0-3--3-5-3-5/7-7-5--0-0-3-5-3-0--|


Chorus (Guitar 2) : 
[Repeat 3 times]
e|---------------------------------------------|
B|--5-5-5-8--8-10-8-10/12-12-10--5-5-8-10-8-5--|
G|---------------------------------------------|
D|---------------------------------------------|
A|---------------------------------------------|
E|---------------------------------------------|

e|-----------------------------------------------------------------------------|
B|--5-5-5-8--8-10-8-10/12-12-12/15-15-17-17-15-15-15-17--17-15b(17)r15---------|
G|----------------------------------------------------------------------12-----|
D|------------------------------------------------------------------------14v--|
A|-----------------------------------------------------------------------------|
E|-----------------------------------------------------------------------------|


Verse #2 (Guitar 2) :
e|---------------------------|
B|---------------------------|
G|---------------------------|
D|--14-14-------14p12--------|
A|--------12h14--------------|
E|--------------------15b----|

e|--------------------------------|
B|--------------------------------|
G|--------------------12b---------|
D|--14-14-------14p12-----14p12---|
A|--------12h14-------------------|
E|--------------------------------|

e|---------------------------|
B|---------------------------|
G|---------------------------|
D|--14-14-------14p12--------|
A|--------12h14--------------|
E|--------------------15b----|

e|-------------------------------|
B|-------------------------------|
G|--------14b(15)-15-15-15v------|
D|--14-14------------------------|
A|-------------------------------|
E|-------------------------------|
Tap to rate this tab
 
# A B C D E F G H I J K L M N O P Q R S T U V W X Y Z