Song name
# A B C D E F G H I J K L M N O P Q R S T U V W X Y Z

Black Keys - Hold Me In Your Arms tab

The Black Keys - Hold Me in Your Arms,
tabbed by mike nolan
-
It's in drop D. use a slide (i use mine on my pinky finger).
you'll also need a nasty fuzz pedal. just kidding. kinda.
_

main riff:
e|-------------------------------------------------------|
B|-------------------------------------------------------|
G|------7------------------------------------------------|
D|--0------5s4----0--------------------------------------|
A|-----------------------3sb-------5sb~------------------|
D|--0----------------3sb-----------5sb-------------------|


e|---------------------------------------------------|
B|---------------------------------------------------|
G|------0-----------------0--------------------------|
D|------2--------0--------2-----5-5-3-0--------------|
A|--2------2-----2---2-------2-----------------------|
D|----------3-------3---------3----------------------|
 "I neeed you,      i need you by my side"

(main riff x2)

e|-------------------------------------------------|
B|-------------------------------------------------|
G|------0-----------------0------------------------|
D|------2--------0--------2-----5b-5-3-0-----------|
A|--2------2-----2---2-------2---------------------|
D|----------3-------3---------3--------------------|
 "Lonely evenings,   eyes are open wide"

(main riff x4)

e|---------------------------------------------|
B|---------------------------------------------|
G|---------------------------------------------|
D|---3~----0---------5~----3~------------------|
A|---3~----0---------5~----3~------------------|
D|---3~----0---------5~----3~------------------|
"Nothing you say could make me turn my back"

(main riff x4)

back to chorus if first time through, otherwise:

e|---------------------------------------------|
B|---------------------------------------------|
G|---------------------------------------------|
D|---5~----------8~-----10~--------------------|
A|---5~----------8~-----10~--------------------|
D|---5~----------8~-----10~--------------------|

(main riff x4)
(repeat)

"outro":

e|----------------------------------------------|
B|--7~7~7~7~7~7~7~7~7~7~7~7~7~7~7~7~------------|
G|--7~7~7~7~7~7~7~7~7~7~7~7~7~7~7~7~------------|
D|--7~7~7~7~7~7~7~7~7~7~7~7~7~7~7~7~0-----------|
A|----------------------------------0-----------|
D|----------------------------------0-----------|

-
enjoy!
Tap to rate this tab
 
# A B C D E F G H I J K L M N O P Q R S T U V W X Y Z