Song name
# A B C D E F G H I J K L M N O P Q R S T U V W X Y Z

Black Keys - Sister tab

By Blaque2pi

Heard this song and couldn't wait for someone to post tabs :) off their upcoming album "El Camino"

Let me know what you think! I gots solos and errthing!

Standard Tuning

Intro:
      Em           Dm
e|-7--7--7-------5--5--5---|
B|-8--10-8-------6--8--6---|
G|-9--7--9-------7--5--7---|   x2
D|-9--9--9-------7--7--7---|
A|-7--7--7-------5--5--5---|
E|-------------------------|

      Am
e|-5--5--5---|
B|-5--5--5---|
G|-5--7--5---|   x4
D|-7--5--7p5-|
A|-7--7--7p5-|
E|-5--5--5---|

Verse:
      Am                          Dm
e|-5--5--5-------5--5--5-------5--5--5-------5--5--5---|
B|-5--5--5-------5--5--5-------6--8--6-------6--8--6---|
G|-5--7--5-------5--7--5-------7--5--7p5-----7--5--7p5-|   x2
D|-7--5--7p5-----7--5--7p5-----7--7--7p5-----7--7--7p5-|
A|-7--7--7p5-----7--7--7p5-----5--5--5-------5--5--5---|
E|-5--5--5-------5--5--5-------------------------------|

Chorus:
      Em             Dm
e|-7--7--7--7-----5--5--5--5-|
B|-8--8--8--8-----6--6--6--6-|
G|-9--9--9--9-----7--7--7--7-|   x2
D|-9--9--9--9-----7--7--7--7-|
A|-7--7--7--7-----5--5--5--5-|
E|---------------------------|

After First Chorus:
      Am
e|-5--5--5---|
B|-5--5--5---|
G|-5--7--5---|   x2
D|-7--5--7p5-|
A|-7--7--7p5-|
E|-5--5--5---|

Verse, the another chorus.

After Second Chorus:
Sister, Sister, What did they do   to you?
   Am                  Dm                  F
e|-5---------5---------5------5----5-------------------------------------|
B|-5---------5---------6------6----6------10--10--10--10--10--10--10--10-|
G|-5---------5---------7------7----7------10--10--10--10--10--10--10--10-|x2
D|-7---------7---------7------7----7------10--10--10--10--10--10--10--10-|
A|-7---------7---------5------5----5------8---8---8---8---8---8---8---8--|
E|-5---------5-----------------------------------------------------------|

      Em           Dm
e|-7--7--7-------5--5--5---|
B|-8--10-8-------6--8--6---|
G|-9--7--9-------7--5--7---|   x2
D|-9--9--9-------7--7--7---|
A|-7--7--7-------5--5--5---|
E|-------------------------|

      Am
e|-5--5--5---|
B|-5--5--5---|
G|-5--7--5---|   x2
D|-7--5--7p5-|
A|-7--7--7p5-|
E|-5--5--5---|

      Am                          Dm
e|-5--5--5-------5--5--5-------5--5--5-------5--5--5---|
B|-5--5--5-------5--5--5-------6--8--6-------6--8--6---|
G|-5--7--5-------5--7--5-------7--5--7p5-----7--5--7p5-|
D|-7--5--7p5-----7--5--7p5-----7--7--7p5-----7--7--7p5-|
A|-7--7--7p5-----7--7--7p5-----5--5--5-------5--5--5---|
E|-5--5--5-------5--5--5-------------------------------|

      Em             Dm
e|-7--7--7--7-----5--5--5--5-|
B|-8--8--8--8-----6--6--6--6-|
G|-9--9--9--9-----7--7--7--7-|   x2
D|-9--9--9--9-----7--7--7--7-|
A|-7--7--7--7-----5--5--5--5-|
E|---------------------------|

Solo Played over the last part:
           Am    Am             Dm       Dm        Em
e|-------------------------------------------------------------------|
B|----------------------------------8-8--------------------8---8-10--|
G|-----5-7-7s9-7-5s7-5------5-7-7s9------7-5-7p5h7-7s9-9-9---9-------|
D|-5h7------------------5h7------------------------------------------|
A|-------------------------------------------------------------------|
E|-------------------------------------------------------------------|
   Dm                Em                Dm
e|-------------------------------------10b12b10p8--------------|
B|-8s10-8--------------------8---8-10-------------10-8---------|
G|--------9-7s5-7p5--7s9-9-9---9-----------------------9p8p7-5-|
D|-------------------------------------------------------------|
A|-------------------------------------------------------------|
E|-------------------------------------------------------------|
Verse, then one last chorus, and then this part again

Sister, Sister, What did they do   to you?
   Am                  Dm                  F
e|-5---------5---------5------5----5-------------------------------------|
B|-5---------5---------6------6----6------10--10--10--10--10--10--10--10-|
G|-5---------5---------7------7----7------10--10--10--10--10--10--10--10-|x2
D|-7---------7---------7------7----7------10--10--10--10--10--10--10--10-|
A|-7---------7---------5------5----5------8---8---8---8---8---8---8---8--|
E|-5---------5-----------------------------------------------------------|

Solo:

   Am               Am              Dm    Dm
e|----------------------------------------------|
B|-8h10-8h10-8------8h10-8h10-8-----------------|
G|-------------9-7--------------9-7-7s9-7-7s9-7-|
D|----------------------------------------------|
A|----------------------------------------------|
E|----------------------------------------------|

   Am               Am              Dm    Dm
e|----------------------------------------------|
B|-8h10-8h10-8------8h10-8h10-8-----------------|
G|-------------9-7--------------9-7-7s9-7-5s7-5-|
D|----------------------------------------------|
A|----------------------------------------------|
E|----------------------------------------------|

      Em           Dm
e|-7--7--7-------5--5--5---|
B|-8--10-8-------6--8--6---|
G|-9--7--9-------7--5--7---|   x2
D|-9--9--9-------7--7--7---|
A|-7--7--7-------5--5--5---|
E|-------------------------|

      Am
e|-5--5--5---|
B|-5--5--5---|
G|-5--7--5---|   x4
D|-7--5--7p5-|
A|-7--7--7p5-|
E|-5--5--5---|

Then he plays the verse a couple more times and ends abruptly on an Am chord.
Tap to rate this tab
 
# A B C D E F G H I J K L M N O P Q R S T U V W X Y Z