Song name
# A B C D E F G H I J K L M N O P Q R S T U V W X Y Z

Black Label Society - Black Pearl tab

Band- Black Label Society
Song- Black Pearl

Tuning: E-A-D-G-B-e


intro

|---12--------------12------5----------------------------------|
|-12--------------12-------5-----------------------------------|
|--------------------------------------------------------------|
|--------------------------------------------------------------|
|--------------------------------------------------------------|
|--------------------------------------------------------------|


chorus
|--------------------------------------------------------------|
|--------------------------------------------------------------|
|--------------------------------------------------------------|
|------------7-7^8^7-5-77-5~-----------------------------------|
|-7-7-7-7-7-5------------------5---5---------------------------|
|-0-0-0-0-0------------------0---0---5~------------------------|


solo
|-----------------------------|---------------------------------|
|-----------------------------|------11^12----11^12---11~-------|
|--10---12-10-12^13-13^12-10--|--10-------10--------10----------|
|-----------------------------|---------------------------------|
|-----------------------------|---------------------------------|
|-----------------------------|---------------------------------|



|-------------------------|-------------------------------------|
|-------------------------|-12-13-10-12----10-12-13-10-12----10-|
|-------------------------|-------------------------------------|
|-------------------------|-------------------------------------|
|-------------------------|-------------------------------------|
|-------------------------|-------------------------------------|
Tap to rate this tab
 
# A B C D E F G H I J K L M N O P Q R S T U V W X Y Z