Song name
# A B C D E F G H I J K L M N O P Q R S T U V W X Y Z

Black Label Society - New Religion tab

Black Label Society

New Religion

Drop D

Nuff Said...

Intro Dealie (Finger-picked, clean)
|1-----0-----1------------------------|
|----3---3-------3~-------------------|
|--2-------2---2----------------------|
|0------------------------------------|
|----------------1~-------------------|
|-------------------------------------|

|0-----1-----0------------------------|
|--------1-------3~-------------------|
|----0-----0---0----------------------| Repeat once from beginning
|--2----------------------------------|
|3---------------0~-------------------|
|-------------------------------------|

|5-3-1-3--1--0--1-0-------------------|
|--------------------3~---------------|
|-------------------------------------| x3
|0-----3------------------------------|
|------------3-------1~---------------|
|-------------------------------------|

|0-----0---------0-----0--------------|
|2---2----3-2-3~-2---2---3-2----------|
|0-0-------------0-0------------------|
|2---------------2--------------------|
|------1------0~-------1--------------|
|-------------------------------------|

|1-----0-----1------------------------|
|----3---3-------3~-------------------|
|--2-------2---2----------------------|
|0------------------------------------|
|----------------1~-------------------|
|-------------------------------------|

|0-----1-----0------------------------|
|--------1-------3~-------------------|
|----0-----0---0----------------------| x2
|--2----------------------------------|
|3---------------0~-------------------|
|-------------------------------------|

Verse (Distort it like crazy)
|-------------------------------------|
|-------------------------------------|
|-------------------------------------|
|-------------------------------------|
|-------------------------------------|
|0-1210-0-1312-0-1210-1312-0-121012---|


chorus
|------------------------------------------|
|------------------------------------------|
|------------------------------------------|
|0--8-10-----------------------------------|
|0--8-10--3h5-3h5-3h5--3*------------------|
|0--8-10-------------------6-5-3-0---------|


|------------------------------------------|
|------------------------------------------|
|------------------------------------------|
|0--8-10--------------5-3-----5-3----------|
|0--8-10--3h5-3h5-3h5-----5-3-----5-3------|
|0--8-10-----------------------------------|


|------------------------------------------|
|------------------------------------------|
|------------------------------------------|
|0--8-10-----------------------------------|
|0--8-10--3h5-3h5-3h5--3*------------------|
|0--8-10-------------------6-5-3-0---------|


|--------------------------------------------|
|--------------------------------------------|
|--------------------------------------------|
|0--8-10-------------------------------------|
|0--8-10--------back into verse riff---------|
|0--8-10-------------------------------------|

during solo
|----------------------------------------|
|----------------------------------------|
|3----5s7s9s10s12------------------------|
|3---------------------------------------|
|1----3s5s7s8s10-------------------------| 3x
|----------------------------------------|

|------------------------------------|
|------------------------------------|
|3------5----------------------------|
|3------5----------------------------|
|1------1----------------------------|
|------------------------------------|

back into verse riff

verse
chorus
verse
chorus
verse
solo riff
verse

That's all she wrote, if you thought I was going to tab out the solo then you're a loon.
If you're good enough to play Zakk's solos, you're good enough to just improvise over
it, and if you're not good enough to improv over it, then you're not good enough to play it.
  Cheers.
Tap to rate this tab
# A B C D E F G H I J K L M N O P Q R S T U V W X Y Z