Song name
# A B C D E F G H I J K L M N O P Q R S T U V W X Y Z

Black Label Society - Spread Your Wings tab

Not to sure about the solo, so I'll just give you people this

Intro (W/ Flange)
|-----------------------||
|-----------------------||
|-----------------------||
|-------5-----------5---||
|-0-----3-----0-----3---||
|-0-----------0---------||

|----------------------------------------------------------------------------|
|----------------------------------------------------------------------------|
|----------------------------------------------------------------------------|
|-------------------------3/5-3----------------------------------------------|
|-3/5---3/5---3/5---3/5---------5~~------------------------------------------|
|-----0-----0-----0-----0-------------5~~------------------------------------|
                                      P.H
Verse/Chorus
|----------------------------------------------------------------------------|
|----------------------------------------------------------------------------|
|----------------------------------------------------------------------------|
|-6/5-3-0-----0---0------3-5---6/5-3-0-----0---0-----------------------------|
|-6/5-3-0-0-0-0-0-0-0-0--3-5---6/5-3-0-0-0-0-0-0-0-0-------------------------|
|-6/5-3-0-0-0-0-0-0-0-0--3-5---6/5-3-0-0-0-0-0-0-0-0--5~~--------------------|
                                                      P.H
Pre-Chorus
|--------------------------------------------------------------------------|
|--------------------------------------------------------------------------|
|--------------------------------------------------------------------------|
|-5--------3---------------------------------------------------------------|
|-5--------3---------------------------------------------------------------|
|-5--------3---------------------------------------------------------------|
Tap to rate this tab
# A B C D E F G H I J K L M N O P Q R S T U V W X Y Z