Song name
# A B C D E F G H I J K L M N O P Q R S T U V W X Y Z

Black Label Society - Fire It Up tab

Tuning: ONE HALF STEP DOWN

Intro
|--------------------------------|
|--------------------------------|
|--------------------------------|
|--------------------------------|
|-3~2~2-0-3~2~2~0---3~2~2~0------|
|-----------------2---------0-2--| Play 2x

GTR. 1
|--------------------------------|
|--------------------------------|
|--------------------------------|
|--------------------------------|
|-3~2~2-0-3~2~2~0---3~2~2~0------|
|-----------------2---------0-2--|
|                                |
|                                |
|GTR2                            | 
|--------------------------------|
|--------------------------------|
|--------------------------------|
|-------------------------4-4-4--|
|-4-4-4-4-4-4-4-4-4-2-2-2-2-2-2--|
|-2-2-2-2-2-2-2-2-2-0-0-0--------|

Verse
|--------------------------------|
|--------------------------------|
|--------------------------------|
|-------------------------4-4-4--|
|-4-4-4-4-4-4-4-4-4-2-2-2-2-2-2--|
|-2-2-2-2-2-2-2-2-2-0-0-0--------| play 2x


|--------------------------------|
|--------------------------------|
|--------------------------------|
|--------------------------------|
|-3~2~2-0-3~2~2~0---3~2~2~0------|
|-----------------2---------0-2--| play 2x
Tap to rate this tab
# A B C D E F G H I J K L M N O P Q R S T U V W X Y Z