Song name
# A B C D E F G H I J K L M N O P Q R S T U V W X Y Z

Black Label Society - Snowblind tab

Main Riff

first guitar
e---------------------------------------------------------2---------------|
B------------------------------------1---------------3------3---3---------|
G-------------------------------0------0---0-------2---2------2-----------|
D--9--11--12---7---9---------2-----2-----2-------0------------------------|
A--7---9--10---5---7----0-3-----------------------------------------------|
E-------------------------------------------------------------------------|

second guitar
e--0-------------------------------------------------------------2----------|
B--0-------------------0-------------------1----------------3------3---3----|
G--0---------------0-----0---0--------0------0---0--------2---2------2------|
D--2---4---5-----4---4-----4--------2---2------2-------0--------------------|
A--2---4---5---5-----------------3------------------------------------------|
E--0------------------------------------------------------------------------|

e------------------------------------|
B------------------------------------|
G------------------------------------|
D--9--9-----9------7--7---------5----|
A--7--7--0--7---0--5--5---5h7--------|
E-- ---------------------------------|

e--------------------------------------2---------|
B----------------------------1-------3-----------|
G--------------------------0-------2-------------|
D-------------7----------2-------0---------------|
A-/7----------7--------3-------------------------|
E-----10---9-----7-------------------------------|


e----------0-----------------------------------0------------------0------|
B--------0---0-------------0-------0---------0---0--------------0---0----|
G------0-------0---------0-------0---------0-------0----------0-------0--|
D----9-----------9-----7-------5---------5-----------5------4------------|=*
A--7-----------------5-------4---------3------------------2--------------|=*
E------------------------------------------------------------------------|=*


e----------------------------12------------------------------------|
B--12--15--15b-15b-15b-15b-------15---12---------------------------|
G------------------------------------------15--14--12--------------|
D------------------------------------------------------\7--5-------|
A------------------------------------------------------------------|
E------------------------------------------------------------------|
=0D
e------------------------------------------------------------------|
B------------------------------------------------------------------|
G---------------------------------------------5--------------------|
D-------5--7--7b-7b-7b--7--5--7----------5------7---------5--7-----|
A--5h7---------------------------7--5h7-----7-------5h7------------|
E------------------------------------------------------------------|
=

e------------------------------------------------------------------|
B------------------------------------------------------------------|
G------------------------------------------------------------------|
D--7b-7b--7--5--7b--7--5h7-----------5------5---------5--7---------|
A---------------------------7--5h7------7------7--5h7--------------|
E------------------------------------------------------------------|
=0D
e---------------------------------------------------------15b--15b--|
B------------15b--15b--15b--15b--12---------------------------------|
G-------------------------------------15--12------------------------|
D--7b--7--5-----------------------------------15--14--12------------|
A-------------------------------------------------------------------|
E-------------------------------------------------------------------|

e--12-------12------------------------------------------|
B------15b------15--12----------------------------------|
G------------------------15--14--12---------------------|
D-------------------------------------14\---------------|
A-------------------------------------------------------|
E-------------------------------------------------------|


e---------------------------------------------------------------------|
B--------------------------------------------------------------3------|
G------------------------------------------------------------0---0----|
D-------5-----5-----------5-----5------------5-----5-------4-------4--|
A----7-----7-----------7-----7------------7-----7--------5------------|
E--0---------------0-----------------0--------------------------------|
Tap to rate this tab
# A B C D E F G H I J K L M N O P Q R S T U V W X Y Z