Song name
# A B C D E F G H I J K L M N O P Q R S T U V W X Y Z

Black Label Society - Doomsday Jesus tab

Artist: Black Label Society
Album: The Blessed Hellride
Title: Doomsday Jesus

From: www.BlackLabelSociety.net

Tabbed By: Fender-Bender (Michael Trasso)

Tuning: Dropped C (C G C F A D)


Intro:
(Guitar slide down)
                                                               8X
D|--------------------------------------------------------------|
A|--------------------------------------------------------------|
F|--------------------------------------------------------------|
C|-------------------------------------------------7------------|
G|-------------------------------------------------5------------|
C|-0-0-0-0-0-0--0-0-0-0-0-0--0-0-0-0--0-0-0-0-0-0--0------------|

Chorus:
(guitar slide down) 0:32

D|-----------------------------------------------------------------------|
A|-----------------------------------------------------------------------|
F|-----------------------------------------------------------------------|
C|--10--9--7--9--10--7--------------------------------------5-----5------|
G|--8---7--5--7--8---5--0--6--5--3--0--3--2--0--2--3--0--0--3--0--3------|
C|----------------------0--6--5--3--0--3--2--0--2--3--0--0-----0-----3ph-|
 (Ahhhhhhhhhhhhhhhhhhhhhhhhhhhhhhhhhhhhhhhhhhhhhhhhhhh)  PM    PM

D|--------------------------------------------------------|
A|--------------------------------------------------------|
F|--------------------------------------------------------|
C|--10--9--7--9--10--7------------------------------------|
G|--8---7--5--7--8---5--0--6--5--3--0---------------------|
C|----------------------0--6--5--3--0--3ph--3ph--3ph--3ph-|
 (Ahhhhhhhhhhhhhhhhhhhhhhhhhhhhhhhhhh) (Doomsday Jesus we..)

D|-----------------------------------------------------------------------|
A|-----------------------------------------------------------------------|
F|-----------------------------------------------------------------------|
C|--10--9--7--9--10--7--------------------------------------5-----5------|
G|--8---7--5--7--8---5--0--6--5--3--0--3--2--0--2--3--0--0--3--0--3------|
C|----------------------0--6--5--3--0--3--2--0--2--3--0--0-----0-----3ph-|
 (Ahhhhhhhhhhhhhhhhhhhhhhhhhhhhhhhhhhhhhhhhhhhhhhhhhhh)  PM    PM

D|--------------------------------------------------------|
A|--------------------------------------------------------|
F|--------------------------------------------------------|
C|--10--9--7--9--10--7------------------------------------|
G|--8---7--5--7--8---5--0--6--5--3--0---------------------|
C|----------------------0--6--5--3--0--3ph--3ph--3ph--3ph-|
 (Ahhhhhhhhhhhhhhhhhhhhhhhhhhhhhhhhhh) (Doomsday Jesus we..)

  1:03

D|--------------------------------------------------------------|
A|--------------------------------------------------------------|
F|--------------------------------------------------------------|
C|-------------------------------------------------7------------|
G|-------------------------------------------------5------------|
C|-0-0-0-0-0-0--0-0-0-0-0-0--0-0-0-0--0-0-0-0-0-0--0------------|

Chorus:
(guitar slide down)

   1:27

D|-----------------------------------------------------------------------|
A|-----------------------------------------------------------------------|
F|-----------------------------------------------------------------------|
C|--10--9--7--9--10--7--------------------------------------5-----5------|
G|--8---7--5--7--8---5--0--6--5--3--0--3--2--0--2--3--0--0--3--0--3------|
C|----------------------0--6--5--3--0--3--2--0--2--3--0--0-----0-----3ph-|
 (Ahhhhhhhhhhhhhhhhhhhhhhhhhhhhhhhhhhhhhhhhhhhhhhhhhhh)  PM    PM

D|--------------------------------------------------------|
A|--------------------------------------------------------|
F|--------------------------------------------------------|
C|--10--9--7--9--10--7------------------------------------|
G|--8---7--5--7--8---5--0--6--5--3--0---------------------|
C|----------------------0--6--5--3--0--3ph--3ph--3ph--3ph-|
 (Ahhhhhhhhhhhhhhhhhhhhhhhhhhhhhhhhhh) (Doomsday Jesus we..)

D|-----------------------------------------------------------------------|
A|-----------------------------------------------------------------------|
F|-----------------------------------------------------------------------|
C|--10--9--7--9--10--7--------------------------------------5-----5------|
G|--8---7--5--7--8---5--0--6--5--3--0--3--2--0--2--3--0--0--3--0--3------|
C|----------------------0--6--5--3--0--3--2--0--2--3--0--0-----0-----3ph-|
 (Ahhhhhhhhhhhhhhhhhhhhhhhhhhhhhhhhhhhhhhhhhhhhhhhhhhh)  PM    PM

D|--------------------------------------------------------|
A|--------------------------------------------------------|
F|--------------------------------------------------------|
C|--10--9--7--9--10--7------------------------------------|
G|--8---7--5--7--8---5--0--6--5--3--0---------------------|
C|----------------------0--6--5--3--0--3ph--3ph--3ph--3ph-|
 (Ahhhhhhhhhhhhhhhhhhhhhhhhhhhhhhhhhh) (Doomsday Jesus we..)

D|----------------------|----------------------|-------------------|
A|----------------------|----------------------|-------------------|
F|----------------------|----------------------|-------------------|
C|----------------------|----------------------|-------------------|
G|--6-5-0-5-0-3-3-0-----|----------------------|--6-5-0-5-0-3-3-0--|
C|--6-5-0-5-0-3-3-0-----|--3ph--3ph--3ph--3ph--|--6-5-0-5-0-3-3-0--|
  (Doomsday Jesus we..)    (Doomsday Jesus we..) (Doomsday Jesus we..)

  2:10

Solo:--------------------------------

Chorus:
(guitar slide down)

   2:41

D|-----------------------------------------------------------------------|
A|-----------------------------------------------------------------------|
F|-----------------------------------------------------------------------|
C|--10--9--7--9--10--7--------------------------------------5-----5------|
G|--8---7--5--7--8---5--0--6--5--3--0--3--2--0--2--3--0--0--3--0--3------|
C|----------------------0--6--5--3--0--3--2--0--2--3--0--0-----0-----3ph-|
 (Ahhhhhhhhhhhhhhhhhhhhhhhhhhhhhhhhhhhhhhhhhhhhhhhhhhh)  PM    PM

D|--------------------------------------------------------|
A|--------------------------------------------------------|
F|--------------------------------------------------------|
C|--10--9--7--9--10--7------------------------------------|
G|--8---7--5--7--8---5--0--6--5--3--0---------------------|
C|----------------------0--6--5--3--0--3ph--3ph--3ph--3ph-|
 (Ahhhhhhhhhhhhhhhhhhhhhhhhhhhhhhhhhh) (Doomsday Jesus we..)

D|-----------------------------------------------------------------------|
A|-----------------------------------------------------------------------|
F|-----------------------------------------------------------------------|
C|--10--9--7--9--10--7--------------------------------------5-----5------|
G|--8---7--5--7--8---5--0--6--5--3--0--3--2--0--2--3--0--0--3--0--3------|
C|----------------------0--6--5--3--0--3--2--0--2--3--0--0-----0-----3ph-|
 (Ahhhhhhhhhhhhhhhhhhhhhhhhhhhhhhhhhhhhhhhhhhhhhhhhhhh)  PM    PM


D|--------------------------------------------------------|
A|--------------------------------------------------------|
F|--------------------------------------------------------|
C|--10--9--7--9--10--7------------------------------------|
G|--8---7--5--7--8---5--0--6--5--3--0---------------------|
C|----------------------0--6--5--3--0--3ph--3ph--3ph--3ph-|
 (Ahhhhhhhhhhhhhhhhhhhhhhhhhhhhhhhhhh) (Doomsday Jesus we..)

D|----------------------|----------------------|-------------------|
A|----------------------|----------------------|-------------------|
F|----------------------|----------------------|-------------------|
C|----------------------|----------------------|-------------------|
G|--6-5-0-5-0-3-3-0-----|----------------------|--6-5-0-5-0-3-3-0--|
C|--6-5-0-5-0-3-3-0-----|--3ph--3ph--3ph--3ph--|--6-5-0-5-0-3-3-0--|
  (Doomsday Jesus we..)    (Doomsday Jesus we..) (Doomsday Jesus we..)




  
Tap to rate this tab
# A B C D E F G H I J K L M N O P Q R S T U V W X Y Z