Song name
# A B C D E F G H I J K L M N O P Q R S T U V W X Y Z

Black Label Society - House Of Doom tab

Tuning: Half Step Down (Eb Ab Db Gb Bb Eb)


        let ring thorughout
Eb|----------------------------------------------------------------||
Bb|----------------------------------------------------------------||
Gb|----2-------2------------2-----------------2--------------------||
Db|------4-------------4---------------4--------------4------------||
Ab|-2-------2------------2----------------2----------------2-------||
Eb|----------------------------------------------------------------||
    Do this twice

Eb|------------------------------------------------||
Bb|------------------------------------------------||
Gb|------------------------------------------------||
Db|-4--4--4----------2-2---4-----------------------||
Ab|-2--2--2----------0-0---2-----------------------||
Eb|------------------------------------------------||

    ~              ~              ~
Eb|-0--------------2--------------0----------------||
Bb|-0--------------2--------------0----------------||
Gb|-2--------------2--------------1----------------||
Db|-4--------------4--------------2----------------||
Ab|-2--------------4--------------2----------------||
Eb|----------------2--------------0----------------||


Eb|----------------------------------------------------------------||
Bb|----------------------------------------------------------------||
Gb|----------------------------------------------------------------||
Db|-7--------------------------------------------------------------||
Ab|-5---7-------2-----------------------0--------------------------||
Eb|-5---5-------0---------/7-----0--7---0--------------------------||


Eb|----------------------------------------------------------------||
Bb|----------------------------------------------------------------||
Gb|----------------------------------------------------------------||
Db|----------------------------------------------------------------||
Ab|-4-------------------------------2-------------0---0-----4------||
Eb|-2---------------0----2(FB)--2---0---0--/12----0---0-----2------||


Eb|----------------------------------------------------------------||
Bb|----------------------------------------------------------------||
Gb|-------------------------------------------------------9-11-13--||
Db|--4--------2-2---4----------------------7-9-11-7-9-11-----------||
Ab|--2--------0-0---2-------7-9-11-7-9-11--------------------------||
Eb|----------------------------------------------------------------||
                              solo
                             ~~~~~~~~~~~~~~~~~~~~~~~~~~~~
Eb|-----------------------------------------------------------11(HB)||
Bb|-----------10-12-14-10------------------------------------------||
Gb|--9-11-13------------------14(FB)----------------------14-------||
Db|----------------------------------------------------------------||
Ab|----------------------------------------------------------------||
Eb|----------------------------------------------------------------||

                 ~~~~~~~~~~~~~~~~~       hold bend           ~~~~~~~~
Eb|-11-11h9--------------------------9(HB)---------9---9-7---------||
Bb|---------12--12(HB)--------------------------------------10(FB)-||
Gb|----------------------------------------------------------------||
Db|----------------------------------------------------------------||
Ab|----------------------------------------------------------------||
Eb|----------------------------------------------------------------||


Eb|--------------7-------------------------------------------------||
Bb|-10--10(FB)------10h7--10h7--10h7-----7-7----7-7\\10-----7-10h7--||
Gb|-----------------------------------9------10---------9----------||
Db|----------------------------------------------------------------||
Ab|----------------------------------------------------------------||
Eb|----------------------------------------------------------------||

                                  ~~~~~~           ~~~~~  ~~~~~
Eb|-------------------------------------------------------17(FB)-17\\||
Bb|-9h7---7------7-7------------------------------10(FB)------------||
Gb|-------------------10-9--7--9--7---------------------------------||
Db|----------------------------------------0--0---------------------||
Ab|----------------------------------------0--0---------------------||
Eb|-----------------------------------------------------------------||

                                                              ~~~~~
Eb|-----------------------------------------------------------------||
Bb|------------------------------------------7-7--10-7-9-7-7--10(FB)||
Gb|------------------------------7-7-7-9-7-9------------------------||
Db|------------------7---7-9-7-9------------------------------------||
Ab|--0-5-6-7-7-9-7-9---9--------------------------------------------||
Eb|-----------------------------------------------------------------||





Eb|-0-------------||
Bb|-0-------------||
Gb|-2-------------||
Db|-4-------------||
Ab|--2------------||
Eb|---------------||





(FB)= full bend
(HB)= haf bend
  ~ = vibrato
Tap to rate this tab
# A B C D E F G H I J K L M N O P Q R S T U V W X Y Z