Song name
# A B C D E F G H I J K L M N O P Q R S T U V W X Y Z

Black Label Society - You Must Be Blind tab

#----------------------------------PLEASE NOTE--------------------------------#
#This file is the author's own work and represents their interpretation of the#
#song. You may only use this file for private study, scholarship, or research.#
#-----------------------------------------------------------------------------#



Artist: Zakk Wylde's Black Label Society
Album: Mafia
Title: You Must Be Blind


From: www.BlackLabelSociety.net

Tabbed By: "Brew Machine" Eric Benson (eric@ericbenson.net) 

Tuning: Drop D - D A D G B E 


intro: (fade in)

|--------------------------------------------------------------|
|--------------------------------------------------------------|
|--------------------------------------------------------------|
|--------------------------------------------------------------|
|-0-1-0-1-0-1-0-1-0-1-0-1---(you get the idea)-----------------|
|-0-1-0-1-0-1-0-1-0-1-0-1--------------------------------------|

-----------------------------------------------------------


Verse:
     
|-------------------------------------------------------------|
|---------------------------------------6-----------6---------|
|---------------------------------------5-----3-----5---------|
|---------------------------------------3-----3-----3---------|
|-3--3-3-3-3-3-3-3-3-3-3-3-3-3-3--------3-----------3---------|
|-3--3-3-3-3-3-3-3-3-3-3-3-3-3-3------------------------------|
  Take a look for you'll never see


|--------------------------------------------------------------|
|--------------------------------------------------------------|
|--------------------------------------------------------------|
|--------------------------------------------------------------|
|0-1-0-1-0-1-0-1-0-1-0-1-0-1-0-1-0-1-0-1-0-1-0-1-0-1-0-1-0-1---|
|0-1-0-1-0-1-0-1-0-1-0-1-0-1-0-1-0-1-0-1-0-1-0-1-0-1-0-1-0-1---|


-----------------------------------------------------------

Chorus:
 (-----repeat 6x's-----)
||---------------------||--------------------------------------|
||---------------------||--------------------------------------|
||---------------------||--------------------------------------|
||---------------------||--------------------------------------|
||-3--3---A.H.--(6x's)-||--------------0-1-0-1-0-1-0-1-0-1-0-1-|
||-3--3---3^-----------||--------------0-1-0-1-0-1-0-1-0-1-0-1-|


-----------------------------------------------------------

solo: ( with Wah left in the middle, the nasal spot)


(--------------------pattern "A"------------------------------)

|-14--------13----12-----11-------14--------------------13-12--|
|----13--------12----11--10----------13-----------12-11--------|
|-------14------------------------------14--11-10--------------|
|--------------------------------------------------------------|
|--------------------------------------------------------------|
|--------------------------------------------------------------|


(--------------------pattern "B"------------------------------)

|-13-7-10----7-------------------------------------------------|
|---------13--10-13-7-10----7----------------------------------|
|------------------------13---10-13-7-10----7------------------|
|----------------------------------------13---10-13-7--7-10-13-|
|--------------------------------------------------------------|
|--------------------------------------------------------------|


|----------------------------------------------------------7---|
|-------------------------7-------7-10----7-10-13-7-10-13------|
|-7-------7-10----7-10-13---10-13------13----------------------|
|---10-13------13----------------------------------------------|
|--------------------------------------------------------------|
|--------------------------------------------------------------|


|-------7-10----7-10-13----------------------------------------|
|-10-13------13------------------------------------------------|
|--------------------------------------------------------------|
|--------------------------------------------------------------|
|--------------------------------------------------------------|
|--------------------------------------------------------------|

(repeat pattern "A")

the next part is a variation of pattern B above,
though slightly different..



Tap to rate this tab
# A B C D E F G H I J K L M N O P Q R S T U V W X Y Z