Song name
# A B C D E F G H I J K L M N O P Q R S T U V W X Y Z

Black Label Society - Dead Meadow tab

Well theres only 1 other tab on here and the chords are wrong.  Here are the right ones
and the solo too.  Standard tuning here folks.

Great song.

  Dm           G     
All alone at last
  Dm                 G     
Years roll by so fast
   Dm              G     
Twisted and insane
    Dm     
The house you built
       G     
No longer the same

    F            C                     Dm              C      
      Once you're there
                 Bb     
Once you're there
       A5                    Dm     
You can't come back
    F            C                 Dm              C      
      Nothing lives
                Bb     
Nothing grows
    A5                          Dm                        
Inside the dead meadow

    Dm               G          
Months keep rolling by
    Dm                        G      
Live another day, then you die
    Dm                           G       
ghosts inside your head
    Dm      
we choose our paths
           G      
when all is done and said


Chorus…

Solo:      Dm          G      x6

Chorus…

Outro:     Dm          G      




Solo:


e|-----------10--------------------|----------------------------------------|
B|--------10----10h13--10----10----|----------------------------------------|
G|-12^(14)----------------12----10-|--12p10----12-10h12~~~~-----------------|
D|---------------------------------|--------12------------------------------|
A|---------------------------------|----------------------------------------|
E|---------------------------------|----------------------------------------|

e|-----------10--------------------|----------------------------------------|
B|--------10----10h13--10----10----|----------------------------------------|
G|-12^(14)----------------12----10-|--12p10----12-10h12~~~~-----------------|
D|---------------------------------|--------12------------------------------|
A|---------------------------------|----------------------------------------|
E|---------------------------------|----------------------------------------|

e|-------------------10--------------------|--------------------------------|
B|----------------10----10h13--10----10----|-----------------------13-15-13-|
G|---10-12-12^(14)----------------12----10-|--12p10----12-10h12--/14--------|
D|-/12-------------------------------------|--------12----------------------|
A|-----------------------------------------|--------------------------------|
E|-----------------------------------------|--------------------------------|

e|------13-15-15-13^(15)-15~~~~----13-|-15-13---13--------------------------|
B|-13-15------------------------------|------15----15-13-10-13-10----10-----|
G|------------------------------------|--------------------------12---12-10-|
D|------------------------------------|-------------------------------------|
A|------------------------------------|-------------------------------------|
E|------------------------------------|-------------------------------------|

e|---------------------------------|----------------------------------------|
B|-----------------------10h13p10--|--13^(15)-13^(15)-13^(15)-13^(15)~~~~---|
G|-12-10-12-12^(14)~~~~------------|----------------------------------------|
D|---------------------------------|----------------------------------------|
A|---------------------------------|----------------------------------------|
E|---------------------------------|----------------------------------------|

e|--10--13—10h13p10------13p12---10------|-13-12----13-10----13^(15)-13p12--|
B|----------------13--10-------13----10--|-------10-------10--------------13|
G|---------------------------------------|----------------------------------|
D|---------------------------------------|----------------------------------|
A|---------------------------------------|----------------------------------|
E|---------------------------------------|----------------------------------|

e|--------------------------------------------------------------------------|
B|--10----------------------------------------------------------------------|
G|--------------------------------------------------------------------------|
D|--------------------------------------------------------------------------|
A|--------------------------------------------------------------------------|
E|--------------------------------------------------------------------------|
Tap to rate this tab
# A B C D E F G H I J K L M N O P Q R S T U V W X Y Z