Guitaretab - guitar tabs
Song name
# A B C D E F G H I J K L M N O P Q R S T U V W X Y Z

Black Light Burns - 4 Walls tab

-----------------------------------------------------------------------------------------
                               4 Walls - Black Light Burns
-----------------------------------------------------------------------------------------

Tabbed By: Stephen McFall
Email: smboo28@aim.com

Tuning: C# Standard Tuning (Standard Borland) low to High (C#,F#,B,E,G#,C#)


Intro Gtrs. 1 & 2 (Distorted)
C#|------------------------------------------------------------|}
G#|------------------------------------------------------------|}
 E|------------------------------------------------------------|}
 B|--------2-2----------------2-2--------2-2------------5-5----|}
F#|-2-2--2------2---------5-5-----2-2--2------2-------------5-5|}
C#|-0-0--0------0-3-3-3-3---------0-0--0------0-3-3-3-3--------|}
                                                                } play all 2x for Intro 
Then                                                            }
C#|------------------------------------------------------------|}
G#|------------------------------------------------------------|}
 E|------------------------------------------------------------|}
 B|--------2-2----------------2-2--------2-2-------------------|}
F#|-2-2--2------2---------5-5-----2-2--2-----2-----------------|}
C#|-0-0--0------0-3-3-3-3---------0-0--0-----0-3-0-0-3b4-0-3b4-|}


Verse 1 Gtr. 1 (Clean)
C#|------------------------------------------------------------------------|}
G#|-----------------------------------------------------------------8-8----|}
 E|---------9-9-----------------7-7-9-9---------9-9---------------------7-7|}
 B|------------------------------------------------------------------------|}
F#|-7-7-7-7-----7-7-10-10-10-10---------7-7-7-7-----7-7-10-10-10-10--------|}
C#|------------------------------------------------------------------------|}
PM  * * * * * * * * *  *  *  *  * * * * * * * * * * * * *  *  *  *  * * * * } play all 2x
Then                                                                        }
C#|------------------------------------------------------------------------|}
G#|------------------------------------------------------------------------|}
 E|---------9-9-----------------7-7-9-9---------9-9------------------------|}
 B|------------------------------------------------------------------------|}
F#|-7-7-7-7-----7-7-10-10-10-10---------7-7-7-7-----7-7-10-7-7-10-7-7-10-7-|}
C#|------------------------------------------------------------------------|}
PM  * * * * * * * * *  *  *  *  * * * * * * * * * * * * *  * * *  * * *  *


Chorus Gtr. 1 (Clean w/430ms Delay & Chamber Reverb) This part is kind of tough so watch out. 
C#|----------1212----------121212--------------1212-------------121212---------|}
G#|----------x-x-----------x-x-x---------------x-x--------------x-x-x----------|}
 E|-9--9-9-9-9-9--9-9-9-9--9-9-9--12--12-12-12-9-9--12-12-12-12-9-9-9----------|}
 B|-x--x-x-x------x-x-x-x---------x---x--x--x-------x--x--x--x-----------------|}
F#|-7--7-7-7------7-7-7-7---------10--10-10-10------10-10-10-10----------------|}
C#|----------------------------------------------------------------------------|}
                                                                                } play 2x
Then                                                                            }
C#|--------------1212--------------121212---------------1212-------------121212|}
G#|--------------x-x---------------x-x-x----------------x-x--------------x-x-x-|}
 E|--------------9-9---------------9-9-9---14--14-14-14-9-9--12-12-12-12-9-9-9-|}
 B|-12--12-12-12-------12-12-12-12---------x---x--x--x-------x--x--x--x--------|}
F#|-x---x--x--x--------x--x--x--x----------12--12-12-12------10-10-10-10-------|}
C#|-10--10-10-10-------10-10-10-10---------------------------------------------|}

[ Tab from: http://www.guitaretab.com/b/black-light-burns/170606.html ]
Chorus Gtr. 2 (Distorted)
C#|-------------------------------------------------------------------------------|}         
G#|-------------------------------------------------------------------------------|}
 E|-------------------------------------------------------------------------------|}
 B|-2-2-2-2-2-2-2-2-2-2-2-2-2-2-2-2-5-5-5-5-5-5-5-5-5-5-5-5-5-5-5-5---------------|}
F#|-2-2-2-2-2-2-2-2-2-2-2-2-2-2-2-2-5-5-5-5-5-5-5-5-5-5-5-5-5-5-5-5---------------|}
C#|-0-0-0-0-0-0-0-0-0-0-0-0-0-0-0-0-3-3-3-3-3-3-3-3-3-3-3-3-3-3-3-3---------------|}
                                                                                   }
Then                                                                               } 2x
C#|-------------------------------------------------------------------------------|}
G#|-------------------------------------------------------------------------------|}
 E|-------------------------------------------------------------------------------|}
 B|12-12-12-12-12-12-12-12-12-12-12-12-12-12-12-12-7-7-7-7-7-7-7-7-5-5-5-5-5-5-5-5|}
F#|12-12-12-12-12-12-12-12-12-12-12-12-12-12-12-12-7-7-7-7-7-7-7-7-5-5-5-5-5-5-5-5|}
C#|10-10-10-10-10-10-10-10-10-10-10-10-10-10-10-10-5-5-5-5-5-5-5-5-3-3-3-3-3-3-3-3|}

Guitar Break Gtr. 3 (Distorted w/ Auto-Wah & Delay)
C#|------------------------------------------------------------|
G#|----------5-5-/12~--12h13-12-10-12p10\8-8-7-5h7p5p0-7h8p7---|
 E|-----3h4----------------------------------------------------|
 B|-1h2--------------------------------------------------------|
F#|------------------------------------------------------------|
C#|------------------------------------------------------------|

Then
C#|---------------------------3~-2~----------------------------|
G#|-3-3-3p0-5p0---------------------5~-------------------------|
 E|-------------3h4-3h4h3-5p3----------------------------------|
 B|------------------------------------------------------------|
F#|------------------------------------------------------------|
C#|------------------------------------------------------------|
PM  * * *

Gtr. 2 Plays Intro Riff 1x

Gtr. 1 Repeats Verse

Gtrs. 1 & 2 Repeat Respective Choruses


Interlude Gtr. 3 (Distorted w/ Auto-Wah) play 2x (1x without 2nd Gtr. & 1x with
2nd Gtr.) Just to point out with this and the quick solo after the 1st Chorus
live they would be played by Gtr. 1 but in the studio they were separately tracked
C#|-12~-----------12-----------10~----------10---10------------|
G#|---------10-------------------------------------------------|
 E|------11----12----9~--11-12------12p11-11---9---11~-12------|
 B|------------------------------------------------------------|
F#|------------------------------------------------------------|
C#|------------------------------------------------------------|

Then
C#|------------------------------------------------------------|
G#|-12~-----10----10-----10----10~----10----10-----------------|
 E|------12----11----9~-----12-----12----12---12----12---------|
 B|----------------------------------------------12------------|
F#|------------------------------------------------------------|
C#|------------------------------------------------------------|

Interlude Gtr. 2 (Distorted) play 2x thru during 2nd time through of Gtr. 1ís Solo
C#|----------------------------------------------------------------|
G#|----------------------------------------------------------------|
 E|---------------------------------4-4-4-4-4-4-4-4---4-4-4-4-4-4-4|
 B|-2-2-2-2-2-2-2-2---2-2-2-2-2-2-2-5-5-5-5-5-5-5-5---5-5-5-5-5-5-5|
F#|-2-2-2-2-2-2-2-2---2-2-2-2-2-2-2-5-5-5-5-5-5-5-5---5-5-5-5-5-5-5|
C#|-0-0-0-0-0-0-0-0---0-0-0-0-0-0-0-3-3-3-3-3-3-3-3---3-3-3-3-3-3-3|

Then
C#|------------------------------------------------------------|
G#|------------------------------------------------------------|
 E|------------------------------------------------------------|
 B|-12-12-12-12-12-12-12-12---12-12-12-12-12-12-12-------------|
F#|-12-12-12-12-12-12-12-12---12-12-12-12-12-12-12-------------|
C#|-10-10-10-10-10-10-10-10---10-10-10-10-10-10-10-------------|

Then
C#|------------------------------------------------------------|
G#|------------------------------------------------------------|
 E|------------------------------------------------------------|
 B|-7-7-7-7-7-7-7-7-7-9-9-9-9-9-9-9----------------------------|
F#|-7-7-7-7-7-7-7-7-7-9-9-9-9-9-9-9----------------------------|
C#|-5-5-5-5-5-5-5-5-5-7-7-7-7-7-7-7----------------------------|


Then Both Gtrs. Play Respective Chorus Riffs 4x each for Final Chorus

Outro Pt. 1 Gtrs. 1 & 2 (Distorted) Play this 8x
C#|------------------------------------------------------------|
G#|------------------------------------------------------------|
 E|------------------------------------------------------------|
 B|-5\2-2-5-/14------------------------------------------------|
F#|-5\2-2-5-/14------------------------------------------------|
C#|-3\0-0-3-/12------------------------------------------------|
 
                                      B|2|
After Playing This Guitar 2 ends on  F#|2|
                                     C#|0|
                    
Gtr. 1 Plays Chorus Riff 2x through for Outro Pt. 2

The End

Rate Please & Enjoy!
If you have any corrections email them to me at smboo28@aim.com
Thank You


| /  slide up
| \  slide down
| h  hammer-on
| p  pull-off
| ~  vibrato
| +  harmonic
| x  Mute note
===============================================================================

Related for 4 Walls tab