Song name
# A B C D E F G H I J K L M N O P Q R S T U V W X Y Z

Black Lips - Juvenile tab

-------------------------------------------------------------------------------
			     JUVENILE - Black Lips
-------------------------------------------------------------------------------
Tabbed by: Alex Fernandes
Email: alex_fernandes789@hotmail.com

Tuning: Standard
Intro                                    do this 5 times
e|----------------0---------------------------------------------------------|
B|----------------0---------------------------------------------------------|
G|-1--------------0---------------------------------------------------------|
D|-2---6x---------0---------------------------------------------------------|
A|-2--------------0---------------------------------------------------------|
E|----------------0---------------------------------------------------------|

verse
e|-----------------0-------------------------------0------------------------|
B|-----------------0-------------------------------0------------------------|
G|-----------------0-------or--------1-------------0------------1-----------|
D|-----------------0-----------------2-------------0------------2-----------|
A|-----------------0-----------------2-------------0------------2-----------|
E|-0-0-0-0-0-0-----0-------------------------------0------------------------|

for the chorus, use the chords A, C and G
e|-------------------------------------------3------------------------------|
B|--2----------------1-----------------------3--------------2---------------|
G|--2-------10x------0-------10x------------------10x-------2-----6x--------|
D|--2----------------2--------------------------------------2---------------|
A|-------------------3-----------------------2------------------------------|
E|-------------------------------------------3------------------------------|
after this, do the intro

then, the solo. i can't tab it. but do something  around the 12th fret of e
i think he plays in the frets 12, 15, 17, 19 and then the reverse to 12 again, or you 
improvise, like they do live.
===============================================================================
Tap to rate this tab
 
# A B C D E F G H I J K L M N O P Q R S T U V W X Y Z