Song name
# A B C D E F G H I J K L M N O P Q R S T U V W X Y Z

Black Rebel Motorcycle Club - Berlin tab

Tabbed out by JC

Intro

1st guitar - Plays through most of the song/ That's the main riff (Both of these are 
play bar chords or power chords.)
E-1/3-3-3-3-|
B-1/3-3-3-3-|
G-2/4-4-4-4-|
D-3/5-5-5-5-|
A-3/5-5-5-5-|     x8 during intro
E-1/3-3-3-3-|

2nd Guitar - plays during the 1st guitar's main riff (play the first chord as an upstoke.
E-3--3/4\3-3-1-|
D-3--3/4\3-3-1-|
G-4--4/3\4-4-2-|    x4 during intro
D-5--5/6\5-5-3-|
A-5--5/6\5-5-3-|
E-3--3/4\3-3-1-|

All of the above plays during:

Hey there little lovers      (Main Riffs)
Why we fightin' with each other
Ain't no use in crying like the others
We're fools in need, fools to believe
We're all fools in need too foolish to believe
I'm gonna Somebody 
Somebody
Somebody
Somebody

2nd guitar - Little lead guitar thing that plays during the first "Somebody" part.

E-6------6-----| x4
D---3------3---|
G---5B7----5B7-|
D--------------|
A--------------|
E--------------|

Killer dont you please        (Main Riffs)
I got time and time to bleed
But there aint no use in trying to deceive
ive been fooled by the lover,
fooled by the sinner,
fooled myself into thinking i was living


Both Guitars -

E-6--6-6----8---8--8----6--6-6----8---8--8--|
B-8--8-8----8---8--8----6--6-6----8---8--8--|
G-8--8-8----9---9--9----7--7-7----9---9--9--|
D-8--8-8----10--10-10---8--8-8----10--10-10-|
A-6--6-6----10--10-10---8--8-8----10--10-10-|
E-----------8---8--8----6--6-6----8---8--8--|

(Main Riff) x2

E-1/3-3-3-3-|
B-1/3-3-3-3-|
G-2/4-4-4-4-|
D-3/5-5-5-5-|
A-3/5-5-5-5-|
E-1/3-3-3-3-|

E-3--3/4\3-3-1-| x2 same time
D-3--3/4\3-3-1-|
G-4--4/3\4-4-2-|
D-5--5/6\5-5-3-|
A-5--5/6\5-5-3-|
E-3--3/4\3-3-1-|

Both Guitars - Play Again

E-6--6-6----8---8--8----6--6-6----8---8--8--|
B-8--8-8----8---8--8----6--6-6----8---8--8--|
G-8--8-8----9---9--9----7--7-7----9---9--9--|
D-8--8-8----10--10-10---8--8-8----10--10-10-|
A-6--6-6----10--10-10---8--8-8----10--10-10-|
E-----------8---8--8----6--6-6----8---8--8--|

That part plays during:

im fighting just to breathe as i get back off my knees
help me somebody
help me somebody
im fighting just to breathe as i get back off my knees
im gonna somebody,
somebody,
somebody,
somebody

Plays right after the last "somebody"
E-6------6-----| x4
D---3------3---|
G---5B7----5B7-|
D--------------|
A--------------|
E--------------|

2nd Guitar - plays another lead thing

E-------------333333-1------------------|
B---------------------------------------|
G-33333333-5-----------333333-5-000000--| x2
D---------------------------------------|
A---------------------------------------|
E---------------------------------------|

Both guitars - Chorus

E--------------1--1-1--5-5----|
B--------------3--3-3--5-5----|   x4
G--------------3--3-3--5-5----|
D-3--3-3--5-5--3--3-3--5-5----|
A-3--3-3--5-5--1--1-1--3-3----|
E-1--1-1--3-3-----------------|

she said
suicides easy, what happened to the revolution
suicides easy, what happened to the revolution
suicides easy, what happened to the revolution
suicides easy, what happened to the revolution

(Main Riff) x12

E-1/3-3-3-3-|
B-1/3-3-3-3-|
G-2/4-4-4-4-|
D-3/5-5-5-5-|
A-3/5-5-5-5-|
E-1/3-3-3-3-|

E-3--3/4\3-3-1-|
D-3--3/4\3-3-1-|
G-4--4/3\4-4-2-|
D-5--5/6\5-5-3-|
A-5--5/6\5-5-3-|
E-3--3/4\3-3-1-|

hey little lovers,
no more fighting with each other
aint no use in suffering like the others
were fools in need, fools to believe,
we're all fools in need, to foolish to believe

Both Guitars - Play Again

E-6--6-6----8---8--8----6--6-6----8---8--8--|
B-8--8-8----8---8--8----6--6-6----8---8--8--|
G-8--8-8----9---9--9----7--7-7----9---9--9--|
D-8--8-8----10--10-10---8--8-8----10--10-10-|
A-6--6-6----10--10-10---8--8-8----10--10-10-|
E-----------8---8--8----6--6-6----8---8--8--|

(Main Riff) x2
E-1/3-3-3-3-|
B-1/3-3-3-3-|
G-2/4-4-4-4-|
D-3/5-5-5-5-|
A-3/5-5-5-5-|
E-1/3-3-3-3-|

E-3--3/4\3-3-1-|
D-3--3/4\3-3-1-|
G-4--4/3\4-4-2-|
D-5--5/6\5-5-3-|
A-5--5/6\5-5-3-|
E-3--3/4\3-3-1-|

Both Guitars - Play Again for the last time

E-6--6-6----8---8--8----6--6-6----8---8--8--|
B-8--8-8----8---8--8----6--6-6----8---8--8--|
G-8--8-8----9---9--9----7--7-7----9---9--9--|
D-8--8-8----10--10-10---8--8-8----10--10-10-|
A-6--6-6----10--10-10---8--8-8----10--10-10-|
E-----------8---8--8----6--6-6----8---8--8--|

(Guitar stops Until lead comes in. Starts at "Somebody's gonna, somebody, hurt")

E------------------------|
B------------------------|  x8
G-12-0-12-0-12-0-12-13---|
D------------------------|
A------------------------|
E------------------------|

im gonna somebody,
somebody,
somebody,
somebody,
somebodies gonna, somebody, hurt
somebodies gonna, somebody, hurt
somebodies gonna, somebody, hurt
somebodies gonna, somebody,


I'm not really sure about this part, when I play it I just improvise around these notes:

E------------------------------------|
B----3----3-----5B--5B-5B-5B-5B-5-3--|
G-5--3-5--3-5B--5B--5B-5B-5B-5B-5-3--|
D-5----5-----------------------------|
A------------------------------------|
E------------------------------------|

(I'll post a more accurate part later)

Both Guitars - Sometimes 1. (Chorus)

E--------------1--1-1--5-5----|
B--------------3--3-3--5-5----|   x3
G--------------3--3-3--5-5----|
D-3--3-3--5-5--3--3-3--5-5----|
A-3--3-3--5-5--1--1-1--3-3----|
E-1--1-1--3-3-----------------|

The last one is the same except without the last 2 chords.

E-------------|
B-------------|
G-------------|
D-3--3-3--5-5-|
A-3--3-3--5-5-|
E-1--1-1--3-3-|


she said
suicides easy, what happened to the revolution
suicides easy, what happened to the revolution
suicides easy, what happened to the revolution
suicides easy, what happened to the revolution
Tap to rate this tab
# A B C D E F G H I J K L M N O P Q R S T U V W X Y Z